Asking Alexandria - Closure tab version 1

Asking Alexandria
Closure
Reckless & Relentless

.=Palm mutes
^=whammy bar
h=hammer on
p=pull off

|--------------------------------------------------------------||--------------------------------------------------------------||--------------------------------------------------------------||--------------------------------------------------------------||--0--0-0---0-0---0-0-0-0---0-0----0--0-0---0-0---0-0-0--0-0-0-||--0--0-0---0-0---0-0-0-0---0-0----0--0-0---0-0---0-0-0--0-0-0-| . . . . . . . . . . . . . . . . . . . . . .
|-----------------------------------------------------------------||-----------------------------------------------------------------||-----------------------------------------------------------------||-----------------------------------------------------------------||--0--0-0---0-0---0-0-0-0---0-0----0--0-0---0-0---7-8-7--------10-||--0--0-0---0-0---0-0-0-0---0-0----0--0-0---0-0---------10-7-8----|
. . . . . . . . . . . . . . . . |--------------------------------------------------------------||--------------------------------------------------------------||--------------------------------------------------------------||--------------------------------------------------------------||--0--0-0---0-0---0-0-0-0---0-0----0--0-0---0-0---0-0-0--0-0-0-||--0--0-0---0-0---0-0-0-0---0-0----0--0-0---0-0---0-0-0--0-0-0-|
. . . . . . . . . . . . . . . . . . . . . .|-------------------------------------------------------||-------------------------------------------------------||-------------------------------------------------------||-------------------------------------------------------||--0--0-0---0-0---0-0-0-0---0-0----0---------0----0-0-0-||--0--0-0---0-0---0-0-0-0---0-0----0---------0----0-0-0-|
. . . . . . . . . . . . . . . .|--------------------------------------------------------------||--------------------------------------------------------------||--------------------------------------------------------------||--------------------------------------------------------------||--0--0-0---0-0---0-0-0-0---0-0----0--0-0---0-0---0-0-0--0-0-0-||--0--0-0---0-0---0-0-0-0---0-0----0--0-0---0-0---0-0-0--0-0-0-|
. . . . . . . . . . . . . . . . . . . . . .|----------------------------------------------------------------||----------------------------------------------------------------||----------------------------------------------------------------||----------------------------------------------------------------||--0--0-0---0-0---0-0-0-0---0-0----0--0-0---0-0--7-8-7--------10-||--0--0-0---0-0---0-0-0-0---0-0----0--0-0---0-0--------10-7-8----|
. . . . . . . . . . . . . . . .|--------------------------------------------------------------||--------------------------------------------------------------||--------------------------------------------------------------||--------------------------------------------------------------||--0--0-0---0-0---0-0-0-0---0-0----0--0-0---0-0---0-0-0--0-0-0-||--0--0-0---0-0---0-0-0-0---0-0----0--0-0---0-0---0-0-0--0-0-0-|
. . . . . . . . . . . . . . . . . . . . . .|--------------------------------------||--------------------------------------||--------------------------------------||--------------------------------------||--0--0-0---0-0---0-0-0-0---0-0----0^--||--0--0-0---0-0---0-0-0-0---0-0----0^--| . . . . . . . . . . .
Play x6|--------------------------------------------------------------------------||--------------------------------------------------------------------------||--------------------------------------------------------------------------||--------------------------------------------------------------------------||------8---8-----8------8---8-----8-----------------------10--10--10-8p7h8-||--0-0---0---0-0----0-0---0---0-0---0---0-0-8-0-8-0-0-8--0---0---0---------| . . . . . . . . . . . . . . . . . . .
|---------------------------------------------------------------------------||---------------------------------------------------------------------------||--7-7-7-7---7-7--7-7----7-7-7-7---7-7--7-7--7-7-----5-5-5-5---9-9--9-9--9-9||--x-x-x-x---x-x--x-x----x-x-x-x---x-x--x-x--x-5-----x-x-x-x---x-x--x-x--x-x||--5-5-5-5---5-5--5-5----5-5-5-5---5-5--5-5--5-5-----3-3-3-3---7-7--7-7--7-7||---------------------------------------------------------------------------|
|----------------------------------------------------------------||----------------------------------------------------------------||---10-10-10-10---10-10--10-10--10-10----5-5-5-5---9-9--9-9--9-9-||---x--x--x--x----x--x---x--x---x--x-----x-x-x-x---x-x--x-x--x-x-||---8--8--8--8----8--8---8--8---8--8-----3-3-3-3---7-7--7-7--7-7-||----------------------------------------------------------------|
|--------------------------------------------||--------------------------------------------||---7------5-----9-----10-----5-----9--------||---x-x16--x-x8--x-x8--x-x16--x-x8--x-x8--0~-||---5------3-----7-----8------3-----7-----0~-||-----------------------------------------0~-|
|----------------------------------------------------------------||----------------------------------------------------------------||----------------------------------------------------------------||----------------------------------------------------------------||-0-0---0-0-0-0---0-0---0-0--0-0-0-0---0-0---0-0---0-0-0-0---0-0-||-0-0---0-0-0-0---0-0---0-0--0-0-0-0---0-0---0-0---0-0-0-0---0-0-| . . . . . . . . . . . . . . . . . . . . . . . .
|-1--0-------------0-||--------------------||-------2-------2----||----------3---------||--------------------||--------------------|
|----------------------------------------------------------------||----------------------------------------------------------------||----------------------------------------------------------------||----------------------------------------------------------------||-0-0---0-0-0-0---0-0---0-0--0-0---0-0-0---0-0---0-0-0-0---0-0---||-0-0---0-0-0-0---0-0---0-0--0-0---1-1-1---0-0---0-0-0-0---0-0---| . . . . . . . . . . . . . . . . . . . . . . .
|-1--0-------------0-||--------------------||-------2-------2----||----------3---------||--------------------||--------------------|
|---------------------------------------------------------------------||---------------------------------------------------------------------||---------------------------------------------------------------------||---------------------------------------------------------------------||-0-0~---0-0-0-0~---0-0~---0-0~--0-0~---0-0-0---0-0---0-0-0-0---0-0---||-0-0~---0-0-0-0~---0-0~---0-0~--0-0~---1-1-1---0-0---0-0-0-0---0-0---| . . . . . . . . . . . . . . . . . . . . . . .
|-1--0-------------0-||--------------------||-------2-------2----||----------3---------||--------------------||--------------------|
|----------------------------------------------------------------||----------------------------------------------------------------||----------------------------------------------------------------||----------------------------------------------------------------||-0-0---0-0-0-0---0-0---0-0--0-0---0-0-0---0-0---0-0-0-0---0-0---||-0-0---0-0-0-0---0-0---0-0--0-0---1-1-1---0-0---0-0-0-0---0-0---| . . . . . . . . . . . . . . . . . . . . . . .
|-1--0-------------0---------------------||----------------------------------------||-------2-------2------------------------||----------3--------------------------0~-||----------------------0-0--0-0--0-0--0~-||----------------------1-1--1-1--1-1--0~-|
. . . . . .Play x2|---------------------------------------||---------------------------------------||---------------------------------------||--0~---------10~---------8~--------8~--||--0~---------10~---------8~--------8~--||--0~---------10~---------8~--------8~--|
|-----------------------------------------------------------||-----------------------------------------------------------||--7-7----7--7--7--7--7--7--7-----9-9---9--9--9--9--9--9--9-||--x-x----x--x--x--x--x--x--x-----x-x---x--x--x--x--x--x--x-||--5-5----5--5--5--5--5--5--5-----7-7---7--7--7--7--7--7--7-||-----------------------------------------------------------|
|------------------------------------------------------------||------------------------------------------------------------||--10-10---10--10--10--10--10--10--10-----10-10---10--10--10-||--x--x----x---x---x---x---x---x---x------x--x----x---x---x--||--8--8----8---8---8---8---8---8---8------8--8----8---8---8--||------------------------------------------------------------|
|--------||--------||-999999-||-xxxxxx-||-777777-||--------|
|-----------------------------------------------------------||-----------------------------------------------------------||--7-7----7--7--7--7--7--7--7-----9-9---9--9--9--9--9--9--9-||--x-x----x--x--x--x--x--x--x-----x-x---x--x--x--x--x--x--x-||--5-5----5--5--5--5--5--5--5-----7-7---7--7--7--7--7--7--7-||-----------------------------------------------------------|
|------------------------------------------------------------||------------------------------------------------------------||--10-10---10--10--10--10--10--10--10-----10-10---10--10--10-||--x--x----x---x---x---x---x---x---x------x--x----x---x---x--||--8--8----8---8---8---8---8---8---8------8--8----8---8---8--||------------------------------------------------------------|
|------------||------------||-999999-----||-xxxxxx--0~-||-777777--0~-||---------0~-|
|---------------------------------------------||---------------------------------------------||---------------------------------------------||---------------------------------------------||----------------------0-0--0-0-0---0--0----0-||--0-0-0-0-0-0-0-0-----0-0--0-0-0---0--0----0-|
. . . . . . . .|----------------------------------||----------------------------------||----------------------------------||----------------------------------||-------------------0-0-0---0----0-||-0-0-0-0-0-0-0-0---0-0-0---0----0-| . . . . .
|---------------------------------------------||---------------------------------------------||---------------------------------------------||---------------------------------------------||----------------------0-0--0-0-0---0--0----0-||--0-0-0-0-0-0-0-0-----0-0--0-0-0---0--0----0-|
. . . . . . . .|----------------------------------||----------------------------------||----------------------------------||----------------------------------||-------------------0-0-0---0----0-||-0-0-0-0-0-0-0-0---0-0-0---0----0-| . . . . . . . . . . . . .
|-----------------------------------------------------||-----------------------------------------------------||-----------------------------------------------------||-----------------------------------------------------||-0-0---0-0---0-0-0-0-0-0---0-0---0-0---0-0-0---0-0-0-||-0-0---0-0---1-1-1-1-1-1---0-0---0-0---1-1-1---1-1-1-| . . . . . . . . . . . . . . . . . . . .
|-----------------------------------------------------||-----------------------------------------------------||-----------------------------------------------------||-----------------------------------------------------||-0-0---0-0---0-0-0-0-0-0---0-0---0-0---0-0-0---0-0-0-||-0-0---0-0---1-1-1-1-1-1---0-0---0-0---1-1-1---1-1-1-| . . . . . . . . . . . . . . . . . . . .
Tap to rate this tab
 
# A B C D E F G H I J K L M N O P Q R S T U V W X Y Z