Asspera - Quien Se Ha Tomado Todo El Vino tab

Quien se ha tomado todo el vino? - Asspera / "La mona" Jiménez

Afinacion / Tuning: RE BEMOL / C#

Tablatura hecha por Matias Reboredo.


PM: Palm Mute



Intro ----- 1|-------------------------------------| | 2|-----------5-------5-------5---------| | 3|---------5-------5-------5---7-5-4---| | 4|-7-7-7-7-----7-7-----7-7-----------7-| | 5|-------------------------------------| | 6|-------------------------------------| |PM: . . . . . . . . | X 2
|
1|-------------------------------------| | 2|-------------------------------------| | 3|---------4-7-----4-7-----4-7-5-4-----| | 4|-5-5-5-5-----5-5-----5-5---------7-5-| | 5|-------------------------------------| | 6|-------------------------------------| |PM: . . . . . . . . -----
----- 1|-----------------------------| | 2|-------5-----5-----5---------| | 3|-----5-----5-----5---7-5-4---| | 4|-7-7-----7-----7-----------7-| | 5|-----------------------------| | 6|-----------------------------| | | X 2
|
1|-----------------------------| | 2|-----------------------------| | 3|-----4-7---4-7---4-7-5-4-----| | 4|-5-5-----5-----5---------7-5-| | 5|-----------------------------| | 6|-----------------------------| | -----Termina con:
1|---| 2|---| 3|---| 4|-8-| 5|-8-| 6|-8-|
1|-------------------------------------------------------------------| 2|-------------------------------------------------------------------| 3|-------------------------------------------------------------------| 4|-8-----------------------------------------------------------------| 5|-8-----------------------------------------------------------------| 6|-8-8-8-8-8-8-8-8-8-8-8-8-8-8-8-8-8-8-8-8-8-8-8-8-8-8-8-8-8-8-8-8-8-| PM: . . . . . . . . . . . . . . . . . . . . . . . . . . . . . . . .No sé que pasa en esta ciudad,No sé que pasa, no puedo entender,
1|--------------------------------------------------------------------------------------| 2|--------------------------------------------------------------------------------------| 3|--------------------------------------------------------------------------------------| 4|-12-------------------------------------------------8---------------------------------| 5|-12-------------------------------------------------8---------------------------------| 6|-12-12-12-12-12-12-12-12-12-12-12-12-12-12-12-12-12-8-8-8-8-8-8-8-8-8-8-8-8-8-8-8-8-8-| PM: . . . . . . . . . . . . . . . . . . . . . . . . . . . . . . . .
Estoy a punto de morir de sed, Porque no encuentro algo para tomar.
1|-------------| 2|-------------| 3|-------------| 4|-10-------12-| 5|-10-------12-| 6|-10-------12-|
Díganme, solo quiero saber
1|-----------------------------| 2|-----------------------------| 3|-----------------------------| 4|-----------------------------| 5|-0-----0-----0-----0-3-2-0---| 6|---2-5---2-5---2-5---------5-|
1|---------------------| 2|---------------------| 3|---------------------| 4|-10-10-10-10-10---12-| 5|-10-10-10-10-10---12-| 6|-10-10-10-10-10---12-|
Quién se ha tomado todo el vino?
1|-----------------------------| 2|-----------------------------| 3|-----------------------------| 4|-----------------------------| 5|-0-----0-----0-----0-3-2-0---| 6|---2-5---2-5---2-5---------5-|
1|---------------------| 2|---------------------| 3|---------------------| 4|-10-10-10-10-10---12-| 5|-10-10-10-10-10---12-| 6|-10-10-10-10-10---12-|
QUIÉN SE HA TOMADO TODO EL VINO!?!?
----- 1|-----------------------------| | 2|-------5-----5-----5---------| | 3|-----5-----5-----5---7-5-4---| | 4|-7-7-----7-----7-----------7-| | 5|-----------------------------| | 6|-----------------------------| | | X 2
|
1|-----------------------------| | 2|-----------------------------| | 3|-----4-7---4-7---4-7-5-4-----| | 4|-5-5-----5-----5---------7-5-| | 5|-----------------------------| | 6|-----------------------------| | -----
1|-------| 2|-----5-| 3|-----5-| 4|-8---7-| 5|-8-----| 6|-8-----|
1|-------------------------------------------------------------------| 2|-------------------------------------------------------------------| 3|-------------------------------------------------------------------| 4|-8-----------------------------------------------------------------| 5|-8-----------------------------------------------------------------| 6|-8-8-8-8-8-8-8-8-8-8-8-8-8-8-8-8-8-8-8-8-8-8-8-8-8-8-8-8-8-8-8-8-8-| PM: . . . . . . . . . . . . . . . . . . . . . . . . . . . . . . . .
Oye nena me quieres decir, Porque no puedo ya calmar mi sed,
1|--------------------------------------------------------------------------------------| 2|--------------------------------------------------------------------------------------| 3|--------------------------------------------------------------------------------------| 4|-12-------------------------------------------------8---------------------------------| 5|-12-------------------------------------------------8---------------------------------| 6|-12-12-12-12-12-12-12-12-12-12-12-12-12-12-12-12-12-8-8-8-8-8-8-8-8-8-8-8-8-8-8-8-8-8-| PM: . . . . . . . . . . . . . . . . . . . . . . . . . . . . . . . .
Esta ciudad parece un desierto, Y si no hay vino no podemos tocar.
1|-------------| 2|-------------| 3|-------------| 4|-10-------12-| 5|-10-------12-| 6|-10-------12-|
Díganme, solo quiero saber
1|-----------------------------| 2|-----------------------------| 3|-----------------------------| 4|-----------------------------| 5|-0-----0-----0-----0-3-2-0---| 6|---2-5---2-5---2-5---------5-|
1|---------------------| 2|---------------------| 3|---------------------| 4|-10-10-10-10-10---12-| 5|-10-10-10-10-10---12-| 6|-10-10-10-10-10---12-|
Quién se ha tomado todo el vino?
1|-----------------------------| 2|-----------------------------| 3|-----------------------------| 4|-----------------------------| 5|-0-----0-----0-----0-3-2-0---| 6|---2-5---2-5---2-5---------5-|
DALE!
1|---------------------| 2|---------------------| 3|---------------------| 4|-10-10-10-10-10---12-| 5|-10-10-10-10-10---12-| 6|-10-10-10-10-10---12-|
QUIÉN SE HA TOMADO TODO EL VINO!?!?
1|-----------------------------| 2|-----------------------------| 3|-----------------------------| 4|-----------------------------| 5|-0-----0-----0-----0-3-2-0---| 6|---2-5---2-5---2-5---------5-|
O-O-O-O-O-O-O AHORA!
1|---------------------| 2|---------------------| 3|---------------------| 4|-10-10-10-10-10---12-| 5|-10-10-10-10-10---12-| 6|-10-10-10-10-10---12-|
QUIÉN SE HA TOMADO TODO EL VINO!?!?
1|-------------------------| 2|-------------------------| 3|-------------------------| X2 4|-8--8--8-----5-7-----5-7-| 5|-8--8--8-5-7-----5-7-----| 6|-8--8--8-----------------|
Acompañar el solo
1|------------------------------------------------------------| 2|------------------------------------------------------------| 3|------------------------------------------------------------| 4|-8-8-8-8-8-8-8-8-8-8-8-8-8-8-8-8-5-5-5-5-5-5-5-5-8-3-5-10-8-| X2 5|-8-8-8-8-8-8-8-8-8-8-8-8-8-8-8-8-5-5-5-5-5-5-5-5-8-3-5-10-8-| 6|-8-8-8-8-8-8-8-8-8-8-8-8-8-8-8-8-5-5-5-5-5-5-5-5-8-3-5-10-8-| PM: . . . . . . . . . . . . . . . . . . . . . . . .
1|---------------------------| 2|---------------------------| 3|---------------------------| 4|-8---3---5---8---8---3---5-| 5|-8---3---5---8---8---3---5-| 6|-8---3---5---8---8---3---5-|
1|---------------------------| 2|---------------------------| 3|---------------------------| X2 4|---------------------------| 5|-0-----0-----0-----0-------| 6|---2-5---2-5---2-5---2-5-2-|
1|-------------| 2|-------------| 3|-------------| 4|-10-------12-| 5|-10-------12-| 6|-10-------12-|
DÍGANME, SOLO QUIERO SABER!!!
1|-----------------------------| 2|-----------------------------| 3|-----------------------------| 4|-----------------------------| 5|-0-----0-----0-----0-3-2-0---| 6|---2-5---2-5---2-5---------5-|
1|---------------------| 2|---------------------| 3|---------------------| 4|-10-10-10-10-10---12-| 5|-10-10-10-10-10---12-| 6|-10-10-10-10-10---12-|
QUIÉN SE HA TOMADO TODO EL VINO!?!?
1|-----------------------------| 2|-----------------------------| 3|-----------------------------| 4|-----------------------------| 5|-0-----0-----0-----0-3-2-0---| 6|---2-5---2-5---2-5---------5-|
1|---------------------| 2|---------------------| 3|---------------------| 4|-10-10-10-10-10---12-| 5|-10-10-10-10-10---12-| 6|-10-10-10-10-10---12-|
QUIÉN SE HA TOMADO TODO EL VINO!?!?
1|-----------------------------| 2|-----------------------------| 3|-----------------------------| 4|-----------------------------| 5|-0-----0-----0-----0-3-2-0---| 6|---2-5---2-5---2-5---------5-|
O-O-O-O-O-O-O AVER!
1|---------------------| 2|---------------------| 3|---------------------| 4|-10-10-10-10-10---12-| 5|-10-10-10-10-10---12-| 6|-10-10-10-10-10---12-|
QUIÉN se ha tomado todo el viiiino?
1|---------------------------| 2|---------------------------| 3|---------------------------| X4 4|---------------------------| 5|-0-----0-----0-----0-------| 6|---2-5---2-5---2-5---2-5-2-|
Termina con:
1|----| 2|----| 3|----| 4|----| 5|----| 6|-/8-|
Tap to rate this tab
 
# A B C D E F G H I J K L M N O P Q R S T U V W X Y Z