Astor Piazzolla - Adios Nonino Tango tab

E||---------------------------|-----------0--------------|B||-----------------0--3-2-1--|-----------0-----3-----1--|G||-----------0--3------------|-----------------2-----0--|D||--------2------------------|--------------------------|A||-----2---------------------|--------------------------|E||--0------------------------|----1h2h3-----2-----0-----|
---------------------------|-------------------------|-----------------0--3-2-1--|-------------------------|-----------0--3------------|-------------------------|--1-----4------------------|----------4-----2-----1--|-----2---------------------|----------3-----2-----0--|---------------------------|----3/-5-----3-----2-----|
---------------------------|-----------0--------------|-----------------0--3-2-1--|-----------0-----3-----1--|-----------0--3------------|-----------------2-----0--|--------2------------------|--------------------------|-----2---------------------|--------------------------|--0------------------------|----1h2h3-----2-----0-----|
---------------------------|-------------------------|------------------------|-----------------0--3-2-1--|-------------------------|------------------------|-----------0--3------------|-------------------------|------------------------|--1-----4------------------|----------4-----2-----1--|-----2--2----2--2-------|-----2---------------------|----------3-----2-----0--|-----2--2----1--1-------|---------------------------|-----3/5-----3-----2-----|--3-----3----2-----2----|
-----------------------|--------------------------|---------------------------|-----------------------|----------------0--3-0-1--|-----1--3--4----3-1-4-3-1--|-----------------------|-------------0------------|---------------------------|-----2--2----2--2------|----------2---------------|--0--------0--------0------|-----0--0----2--2------|----0--3--0--------0------|---------------------------|--1-----1----0---------|--------------------------|---------------------------|
--------------2--5--8-5-7--|---------------------------|-----------3---------------|-----0--1--3----1-0-3-1-0--|-----0--4-----------0------|---------------------------|---------------------------|-----------2--------2------|---------------------------|--3--------3--------3------|--3--------3---------------|---------------------------|
----------------------------|----------2--3--2--0--|--2--------0---------|----------------------------|----------------------|--1--------1----4----|--------------2--0---2-0----|----------------------|--2--------2----5----|-------------------4-----4--|----------------------|--0--------0---------|--1-----1--4----------------|----------------------|---------------------|-----2----------------------|----------------------|---------------------|
--------------------5--3--|--------------------7--5--|--3-----------------------|--3-----------------------|--------4-----4-----4-----|--------2-----2-----------|--------5-----5-----5-----|-----0-----0-----0--7--0--|-----5-----5-----5-----5--|--------------------------|--3-----------3-----------|--2-----------2-----------|
--------------------0--1--|--1-----------0-----------|--3-----------------------|--------3-----------3-----|--------2-----2-----2-----|--------2-----------1-----|-----0-----0-----0-----0--|-----3-----3-----0-----0--|--------------------------|--2-----------------2-----|--1-----------1-----------|--------------0-----------|
--------------------7--5--|--0-----------------8--7--5--|--5-----------------------|--------1-----1--------------|--------5-----5-----5-----|--------2-----2-----5--------|--------7-----7-----------|-----2-----2-----2--7--------|-----7-----7-----7-----7--|-----------------------7-----|--5-----------5-----5-----|--3-----------3--------------|
--0-----------------2--3--|--3--------2--------|------------9----7----|--------1-----1-----1-----|--5--------2--------|-------7---------7----|--------2-----2-----2-----|--4--------3--------|-------7---------7----|-----2-----2-----2-----2--|--5--------2--------|-------7--------------|--------------------------|--4-----------------|----------------------|--2-----------2-----------|-----------2--------|--7---------7---------|
--7---------5---------|-------------10---------|----------------------|-------5---------5----|--10----8----------8----|--8---------7---------|-------4---------4----|--------7----------7----|-------6---------6----|----------------------|--------9----------9----|-------8---------8----|--4---------4---------|------------------------|----------------------|----------------------|--7----------7----------|--6---------6---------|
------------3----2----|--2-------------------|----------------------|-------1---------1----|------------5---------|--5----3----3----5----|-------0--------------|-------4---------4----|-------4---------4----|-------2--------------|-------2---------2----|-------5---------5----|--0---------0---------|----------------------|----------------------|----------------------|--4---------4---------|--3---------3---------|
--2------------------|--------------------5--3--|--------------------7--5--|--2--------5----4----|--3-----------------------|--3-----------------------|--3-------------5----|--------4-----4-----4-----|--------2-----2-----------|--4-------------4----|--------5-----5-----5-----|-----0-----0-----0--7--0--|-----------5---------|-----5-----5-----5-----5--|--------------------------|--2------------------|--3-----------3-----------|--2-----------2-----------|
--------------------0--1--|--1-----------0-----------|--3-----------------------|--------3-----------3-----|--------2-----2-----2-----|--------2-----------1-----|-----0-----0-----0-----0--|-----3-----3-----0-----0--|--------------------------|--2-----------------2-----|--1-----------1-----------|--------------0-----------|
--------------------7--5--|--0-----------------8--7--5--|--5-----------------------|--------1-----1--------------|--------5-----5-----5-----|--------2-----2-----5--------|--------7-----7-----------|-----2-----2-----2--7--------|-----7-----7-----7-----7--|-----------------------7-----|--5-----------5-----5-----|--3-----------3--------------|
--0-----------------10--8--|--8---------7--------|--------2--0--|--------1-----1------------|--10--------7--------|-----0--0--0--|--------2-----2---------9--|--9---------8--------|-----0--------|-----2-----2-----2--10-----|--10--------7--------|--------------|---------------------------|--9------------------|--------------|--2-----------2-----8------|------------7--------|--0-----0-----|
--0-----------------------|---------------------|---------------------|--0--0--0-----------------|--3------------1--3--|--0---------------0--|-----0--0--0--0--0--0-----|--2------------------|--5------------2-----|-----------2--2--4--4--2--|---------------------|--2------------------|-----------------------2--|---------------------|--3------------------|--0-----------0-----------|--1------------------|---------------------|
---------------------|----------------------|-------12----12----12----|---------------------|----------------------|-------12----11----10----|--0---------------0--|----------------------|-------12----11----10----|--1------------4-----|--2----2----2----2----|--2----12----11----10----|--2------------------|----------------------|-------------------------|--3------------------|--0----3----2----1----|--0----0-----0-----0-----|
--12----------------|------------------||--9-----------------|------------------||--9-----------------|------------------||--9-----------------|------------------||--------------------|------------------||--0-----------------|------------------||
Tap to rate this tab
 
# A B C D E F G H I J K L M N O P Q R S T U V W X Y Z