Retribution tab with lyrics by Atheist - Easy chords and tabs for guitar

Atheist – Retribution tab

                                  RETRIBUTION
                             As recorded by Atheist
                  (From the 1991 Album UNQUESTIONABLE PRESENCE)

Tabbed by riversofgore.com

Gtr I (E A D G B E) - 'Gtr1'
Gtr II (E A D G B E) - 'Gtr2'
Gtr III (E A D G B E) - 'Gtr3'
Gtr IV (E A D G B E) - 'Gtr4'
Gtr V (E A D G B E) - 'Gtr5'

Intro Death Metal Q.=125 E5 6/8 Gtrs I, II PM------||------------------|--------------------------------------||------------------|--------------------------------------||------------------|--------------------------------------||------------------|--------------------------------------||-2-------2-2------|--------------------------------------||-0-0-0-0-0-0------|--------------------------------------|
|
| Gtr III|------------------|--------------------------------------||------------------|--------------------------------------||------------------|--------------------------------------||-------------2s15-|-15-15-15-15-15-15S6-(6)b8r(6)b8r(6)\-||------------------|--------------------------------------||------------------|--------------------------------------|
10/8 ~ PM------||------------||------------------||------------||------------------||-4--3-------||------------------||------4-3---||------------------||------------||-2-------2-2------||------------||-0-0-0-0-0-0------|
|
|------------||------------------||------------||------------------||------------||------------------||------------||------------------||-0----------||------------------||------------||------------------|
6/8 PM----||-------------|------------------||-------------|------------------||-4-3---------|------------------||-----4-3-4-6-|------------------||-------------|-2-------2--------||-------------|-0-0-0-0-0--------|
|
|-------------|------------5/-16-||-------------|------------------||-------------|------------------||-------------|------------------||-------------|------------------||-------------|------------------|
~|--------------------------------------------|------------||--------------------------------------------|------------||--------------------------------------------|-4-3--------||--------------------------------------------|-----4-3----||--------------------------------------------|------------||--------------------------------------------|------------|
|
|-19-19-19-19-19-16\-------------------------|------------||--------------------16-(16)b18r(16)b18r(16)s|=7----------||--------------------------------------------|------------||--------------------------------------------|------------||--------------------------------------------|------------||--------------------------------------------|------------|
Q.=135 Q.=150 N.C. 9/8 6/8 Gtrs I, II PM------||-----------------||-------------|-----||-----------------||-------------|-----||-----------------||-4-3---------|-----||-----------------||-----4-3-4-6-|-----||-2-------2-2-----||-------------|-----||-0-0-0-0-0-0-----||-------------|-----|
Verse [00:13] F5D5/AD#5/Bb E5F5F#5/G5 PM||--------|--------|-------------|------||--------|--------|-------------|------||--------|--------|-------------|------||--------|--------|-------2h3h4-|------||----8-5-|-6------|-(6)---2h3h4-|-5----||----8-5-|-6------|-(6)---------|-3----|
F#F5/CE5 E5F5F#5/G5 PM| PM--||-----------|--------|-------------|------||-----------|--------|-------------|------||-----------|--------|-------------|------||-------4-3-|--------|-------2-3-4-|-5----||-(5)---4-3-|-2------|-(2)---2-3-4-|-5----||-(3)-------|-0------|-(0)---------|-3----|
G5/D D#5/Bb E5F5F#5/G5|-------------|--------|-------------|------||-------------|--------|-------------|------||-------------|--------|-------------|------||-(5)---------|-1------|-(1)---2h3h4-|------||-(5)---10\---|-1------|-(1)---2h3h4-|-5----||-(3)---10\---|--------|-------------|-3----|
F#F5/CE5 E5F5F#5/G5 PM| PM--||-----------|--------|-------------|--------|------------||-----------|--------|-------------|--------|------------||-----------|--------|-------------|--------|------------||-------4-3-|--------|-------2-3-4-|-5------|-(5)--------||-(5)---4-3-|-2------|-(2)---2-3-4-|-5------|-(5)---8\---||-(3)-------|-0------|-(0)---------|-3------|-(3)--------|
Q.=145 E5 F5 G5 Gtrs I, II|-------------|-----------------|-------------|---------------||-------------|---------------6-|-------------|---------------||-------------|-------------4---|-------------|---------------||-2-1---0-----|--2---1----3-----|-2-1---0-----|--5--4-------7-||-----3---4-2-|---------3-------|-----3---4-2-|-------5-4-5---||-------------|-----------------|-------------|---------------|
|
| Gtr IV| PM|-------------|-----------------|-------------|---------------||-------------|-----------------|-------------|---------------||-------------|-----------------|-------------|---------------||-2-----------|-(2)-(2)---------|-5-----------|-(5)-----------||-2-----------|-(2)-(2)---3-----|-5-----------|-(5)-----------||-0-----------|-(0)-(0)---1-----|-3-----------|-(3)-----------|
Q.=152 E5 F5 G5|-------------|------------------|-------------|---------------||-------------|------------8-----|-------------|---------------||-------------|--------------5---|-------------|---------------||-2-1---0-----|--2---1--2/-----7-|-2-1---0-----|-------------3-||-----3---4-2-|------------------|-----3---4-2-|---------3-2---||-------------|------------------|-------------|--0--2-3-------|
|
| PM|-------------|------------------|-------------|---------------||-------------|------------------|-------------|---------------||-------------|------------------|-------------|---------------||-2-----------|------------------|-5-----------|-(5)-----------||-2-----------|-(2)-(2)----3-----|-5-----------|-(5)-----------||-0-----------|-(0)-(0)----1-----|-3-----------|-(3)-----------|
E5 F5 G5|-----------------|-----------------|-------------|---------------||-----------------|---------------6-|-------------|---------------||-----------------|-------------4---|-------------|---------------||-2b2.5-1---0-----|--2---1----3-----|-2-1---0-----|--5--4-------7-||---------3---4-2-|---------3-------|-----3---4-2-|-------5-4-5---||-----------------|-----------------|-------------|---------------|
|
| PM|-----------------|-----------------|-------------|---------------||-----------------|-----------------|-------------|---------------||-4---------------|-(4)-(4)---------|-------------|---------------||-2---------------|-(2)-(2)---------|-5-----------|-(5)-----------||-2---------------|-(2)-(2)---3-----|-5-----------|-(5)-----------||-0---------------|-(0)-(0)---1-----|-3-----------|-(3)-----------|
Q.=142 E5/B N.C.|-------------|-------------|-------------|-------------||-------------|-----------6-|-------------|-------------||-------------|---------4---|-------------|-------------||-2-1---0-----|-2-1---3-----|-2-1---0-----|-5-4-------7-||-----3---4-2-|-----3-------|-----3---4-2-|-----5-4-5---||-------------|-------------|-------------|-------------|
|
|-------------|-------------|-------------|-------------||-------------|-------------|-------------|-------------||-4-----------|-4-----------|-4-----------|-------------||-2-----------|-2-----------|-2-----------|-5-4-------7-||-2-----------|-2-----------|-2-----------|-----5-4-5---||-------------|-------------|-------------|-------------|
[00:41] Q=180 Q=174 E5 A5 N.C. 5/4 4/4 Gtrs I, II 4x
|-------------||------------------|------------------|||-------------||o-----------------|---7-------------o|||-------------||----9-------5-----|-4-----6---7------|||---9---------||--7-----9-3-----5-|-----4---5-----7--|||---7----7----||o-----7-------3---|-------------5---o|||--------5----||------------------|------------------||
[00:52] Q=185 N.C. D#5/N.C. 3/4 5/4 PM----| ~ PM------------||---------------||-----------------------|||---------------||-----------------------|||---------------||-----------------------|||---------------||-----------------------|||---------8--7--||---7-6-----6---5-4tr5--|||-0-0-0-0-------||-0---6-0-5---4---------||
3/4 11/8 PM----| ~ PM------------||---------------||----------------------||---------------||----------------------||---------------||----------------------||---------------||----------------------||---------8--7--||---7-------6---5-4----||-0-0-0-0-------||-0---6-0-5---4--------|
Q=180 D#5/N.C. D#5/N.C. 3/4 5/4 3/4 4/4 PM----| ~ PM------------| PM----| ~ PM------------||---------------||-----------------------||---------------||------------------||---------------||-----------------------||---------------||------------------||---------------||-----------------------||---------------||------------------||---------------||-----------------------||---------------||------------------||---------8--7--||---7-6-----6---5-4tr5--||---------8--7--||---7-6-----6---5--||-0-0-0-0-------||-0---6-0-5---4---------||-0-0-0-0-------||-0---6-0-5---4----|
[01:04] Q.=120 N.C. A5 N.C. 9/8 6/8 PM----------------------------| PM------------|
3x|-------------||---------------------||-----------------||-------------||o-------------------o||-----------------||-------------||---------------------||-----------------||-------------||---------------------||-----------------||-5-4-3-5-4---||o-----------------7-o||-----------------||-----------3-||--2-2-2-2-2-2-4-5-5--||-0-0-0-0-0-0-0-0-|
A5 PM------------| PM----------|
3x||---------------------||---------------|||o-------------------o||---------------|||---------------------||---------------|||---------------------||---------------|||o-----------------7-o||---------------|||--2-2-2-2-2-2-4-5-5--||-0-0-0-0-0-0-0-|
[01:12] Q.=120 A5 G5 Gtr III T T T T T T||--12p5h8-12p5h8-12p5h8----------------------|||o----------------------12p5h8-12p5h8-12p5h8-|||--------------------------------------------|||--------------------------------------------|||o-------------------------------------------|||--------------------------------------------|
|
| Gtrs I, II||--------------------------------------------|||o-------------------------------------------|||--------------------------------------------|||---2----------------------------------------|||o--0--------------------5-------------------|||------------------------3-------------------|
C5 D5 T T T T T T|--------------------------------------------||--------------------------------------------||-12p5h8-12p5h8-12p5h8-----------------------||--------------------------------------------||----------------------12p5h8-12p5h8-12p5h8--||--------------------------------------------|
|
|--------------------------------------------||--------------------------------------------||--------------------------------------------||--5--------------------7--------------------||--3--------------------5--------------------||--------------------------------------------|
A5 T T T T T T|-------------------------------------------||-------------------------------------------||-------------------------------------------||-------------------------------------------||-------------------------------------------||-12p5h8-12p5h8-12p5h8-12p5h8-12p5h8-12p5h8-|
|
|-------------------------------------------||-------------------------------------------||-------------------------------------------||--2----------------------------------------||--0----------------------------------------||-------------------------------------------|
G5 T T T T T T|-12p5h8-12p5h8-12p5h8------------------------||----------------------12p5h8-12p5h8-12p5h8---||---------------------------------------------||---------------------------------------------||---------------------------------------------||---------------------------------------------|
|
|---------------------------------------------||---------------------------------------------||---------------------------------------------||--2------------------------------------------||--0--------------------5---------------------||-----------------------3---------------------|
A5 T T T T T T|-------------------------------------------|||-------------------------------------------|||-12p5h8-12p5h8-12p5h8----------------------|||-------------------------------------------|||-------------------------------------------|||----------------------12p5h8-12p5h8-12p5h8-||
|
|-------------------------------------------|||-------------------------------------------|||-------------------------------------------|||--5--------------------2-------------------|||--3--------------------0-------------------|||-------------------------------------------||
1. D5 13/16 T T T T T T T|--------------------------------------------------|||-------------------------------------------------o|||--------------------------------------------------|||--------------------------------------------------|||-12p5h8-12p5h8-12p5h8-12p5h8-12p5h8-12p5h8-12----o|||--------------------------------------------------||
|
|--------------------------------------------------|||-------------------------------------------------o|||--------------------------------------------------|||--7----------------------------------------(7)----|||--5----------------------------------------(5)---o|||--------------------------------------------------||
[01:25] 2. Q.=115 N.C. A5 N.C. 6/8 Gtr I T T T PM------------| PM------------|
3x|-----------------------------||---------------------||-----------------||-----------------------------||o-------------------o||-----------------||-----------------------------||---------------------||-----------------||-----------------------------||---------------------||-----------------||-12p5h8-12p5h8-12\-10\-------||o-----------------7-o||-----------------||-----------------------------||--2-2-2-2-2-2-4-5-5--||-0-0-0-0-0-0-0-0-|
| | Gtr II | PM------------| PM------------|
| 3x|-----------------------------||---------------------||-----------------||-----------------------------||o-------------------o||-----------------||-----------------------------||---------------------||-----------------||--7----------------------(7)-||---------------------||-----------------||--5----------------------(5)-||o-----------------7-o||-----------------||-----------------------------||--2-2-2-2-2-2-4-5-5--||-0-0-0-0-0-0-0-0-|
A5 Gtrs I, II PM------------| PM----------|
3x||---------------------||---------------|||o-------------------o||---------------|||---------------------||---------------|||---------------------||---------------|||o-----------------7-o||---------------|||--2-2-2-2-2-2-4-5-5--||-0-0-0-0-0-0-0-|
[01:33] Q.=120 G5 C5 Gtr III T T T T T T|-------------------------------------------||-12p5h8-12p5h8-12p5h8----------------------||----------------------12p5h8-12p5h8-12p5h8-||-------------------------------------------||-------------------------------------------||-------------------------------------------|
|
| Gtrs I, II|-------------------------------------------||-------------------------------------------||-------------------------------------------||-----------------------5-------------------||--5--------------------3-------------------||--3----------------------------------------|
A5 T T T T T T|---------------------------------------------||---------------------------------------------||---------------------------------------------||---------------------------------------------||---------------------------------------------||-12p5h8-12p5h8-12p5h8-12p5h8-12p5h8-12p5h8---|
|
|---------------------------------------------||---------------------------------------------||---------------------------------------------||--2------------------------------------------||--0------------------------------------------||---------------------------------------------|
G5 C5 A5 5/8 T T T T T T|-------------------------------------------||-------||-12p5h8-12p5h8-12p5h8----------------------||-------||----------------------12p5h8-12p5h8-12p5h8-||-------||-------------------------------------------||-------||-------------------------------------------||-0-----||-------------------------------------------||-------|
|
|-------------------------------------------||-------||-------------------------------------------||-------||-------------------------------------------||-------||-----------------------5-------------------||-2-----||--5--------------------3-------------------||-0-----||--3----------------------------------------||-------|
[01:36] Q=200 H=H Q=217 N.C. 4/4 Gtr I ~~
|---------------------------|---------------------||---------------------------|---------------------||---------------------------|---------------------||-------------------9-12-9\-|---------------3-6-3-||-5s10---------(10)---------|-4---------(4)-------||---------------------------|---------------------|
|
| Gtr II| PM--------------------------------------------|---------------------------|---------------------||---------------------------|---------------------||---------------------------|---------------------||---------------------------|---------------------||----3-3-3-3-3---3--3--3-3--|---------------------||---------------------------|-2-2-2-2-2--2--2-2-2-|
~~~|----------------------------|---------------------||----------------------------|---------------------||------------------11-14-11\-|---------------6-9-6-||-/12---------(12)-----------|-7---------(7)-------||----------------------------|---------------------||----------------------------|---------------------|
|
|------------------------------------------------||----------------------------|---------------------||----------------------------|---------------------||----------------------------|---------------------||----------------------------|---------------------||---5-5-5-5-5---5---5--5--5--|---------------------||----------------------------|-5-5-5-5-5--5--5-5-5-|
~~|------------------------|----------------------||----------------9-12-9\-|----------------------||-/9---------(9)---------|---------------7-10-7S||------------------------|-8---------(8)--------||------------------------|----------------------||------------------------|----------------------|
|
| PM--------------------------------------------|------------------------|----------------------||------------------------|----------------------||------------------------|----------------------||------------------------|----------------------||--7-7-7-7-7--7--7--7-7--|----------------------||------------------------|-6-6-6-6-6--6--6--6-6-|
|--------------------------|------------------------||--------------------------|------------------------||-11---------(11)-15-18-15-|------------------------||--------------------------|--------------15-18-15--||--------------------------|-16------(16)-----------||--------------------------|------------------------|
|
|-----------------------------------------||--------------------------|------------------------||--------------------------|------------------------||--------------------------|------------------------||--------------------------|------------------------||--9-9-9-9-9---9---9--9--9-|------------------------||--------------------------|--9-9--9-------9--------|
[01:45] Q=225 Gtrs I, II|-------------------|-----------------------------------------------------||-------------------|-----------------------------------------------------||-------------------|-----------------------------------------------------||-------------------|-----------------------------------------------------||-------------------|-----------------------------------------------------||-0-----------------|-(0)-------------------------------------------------|
|
| Gtr III| ~~~~~~~~~~~~~~~~~~~~~~~~~~~~~~~~~~~~~~~~~~~~~~~~~~|-------------------|-----------------------------------------------------||-------------------|-----------------------------------------------------||------19b21--(19)--|-19b21r(19)b21r(19)b21r(19)b21r(19)b21r(19)b21r(19)--||-------------------|-----------------------------------------------------||-------------------|-----------------------------------------------------||-------------------|-----------------------------------------------------|
|-------------------------------------|--------------------||-------------------------------------|--------------------||-12----------------------------------|-(12)---------------||-------------------------------------|--------------------||-10----------------------------------|-(10)--------(10)\--||-------------------------------------|--------------------|
|
| ~~~~~~|-------------------------------------|--22b24-------------||-------------------20-24p20-22p20-19-|--------------------||-16h18h21-19h21h23-------------------|--------------------||-------------------------------------|--------------------||-------------------------------------|--------------------||-------------------------------------|--------------------|
Q=178 E5|-------------------------------------------------------||-------------------------------------------------------||-------------------------------------------------------||--9----------------------------------------------------||--7----------------------------------------------------||--0----------------------------------------------------|
|
| T T T T T T T T T|-15p14h15p14-15p12-15p14-15p12-15p14-15p12-15p14-15p12-||-------------------------------------------------------||-------------------------------------------------------||-------------------------------------------------------||-------------------------------------------------------||-------------------------------------------------------|
D5|-------------------------------------------------||-------------------------------------------------||-------------------------------------------------||--7----------------------------------------------||--5----------------------------------------------||-------------------------------------------------|
|
|-14p12-14p10-14p12-14p10-14p12-14p10-14p12-14p10-||-------------------------------------------------||-------------------------------------------------||-------------------------------------------------||-------------------------------------------------||-------------------------------------------------|
C5|---------------------------------------------||---------------------------------------------||---------------------------------------------||--5------------------------------------------||--3------------------------------------------||---------------------------------------------|
|
|-12p10-12p8-12p10-12p8-12p10-12p8-12p10-12p8-||---------------------------------------------||---------------------------------------------||---------------------------------------------||---------------------------------------------||---------------------------------------------|
D5|-------------------------------------------------||-------------------------------------------------||-------------------------------------------------||--7----------------------------------------------||--5----------------------------------------------||-------------------------------------------------|
|
|-14p12-14p10-14p12-14p10-14p12-14p10-14p12-14p10-||-------------------------------------------------||-------------------------------------------------||-------------------------------------------------||-------------------------------------------------||-------------------------------------------------|
E5|-------------------------------------------------||-------------------------------------------------||-------------------------------------------------||--9----------------------------------------------||--7----------------------------------------------||--0----------------------------------------------|
|
|-15p14-15p12-15p14-15p12-------15h17-19p17p15s10-||-------------------------15S17-------------------||-------------------------------------------------||-------------------------12S14-------------------||-------------------------------------------------||-------------------------------------------------|
D5|------------------------------------------------||------------------------------------------------||------------------------------------------------||--7---------------------------------------------||--5---------------------------------------------||------------------------------------------------|
|
|-14p12-14p10-14p12-14p10-------12h14-17p15p14s8-||-------------------------14h15------------------||------------------------------------------------||------------------------------------------------||------------------------------------------------||------------------------------------------------|
C5|-----------------------------------------------|||-----------------------------------------------|||-----------------------------------------------|||--5--------------------------------------------|||--3--------------------------------------------|||-----------------------------------------------||
|
|-12p10-12p8-12p10-12p8-------10h12-15p13p12p10-|||-----------------------12h13-------------------|||-----------------------------------------------|||-----------------------------------------------|||-----------------------------------------------|||-----------------------------------------------||
B5 9/8|-------------------------------------------------------||-------------------------------------------------------||-------------------------------------------------------||--4----------------------------------------------(4)---||--2----------------------------------------------(2)---||-------------------------------------------------------|
|
|----------------------------------------------17h19h21-||-16p14-16p14-16p14-16p14-------16p14-16h19h20----------||-------------------------16h18-------------------------||-------------------------------------------------------||-------------------------------------------------------||-------------------------------------------------------|
Q=204 N.C. 4/4 PM---------------------------------------------------------------------|----------------------------|-------------------------------------------||----------------------------|-------------------------------------------||----------------------------|-------------------------------------------||----------------------------|-------------------------------------------||--7----7-7-7-7--7----7-7--7-|--5--5--5-5-5-5--5--5------------5---------||----------------------------|-------------------------------------------|
|
| ~~~~~~~~~~~~~~~~~~~ TP TP ~~~~~~|-22b24---------22b24-----22-|-24\---17-------17-19b21r(19)b21r==(19)b21r||----------------------------|-------------------------------------------||----------------------------|-------------------------------------------||----------------------------|-------------------------------------------||----------------------------|-------------------------------------------||----------------------------|-------------------------------------------|
----------------------------------||------------------------------------------||------------------------------------------||------------------------------------------||------------------------------------------||---3--3--3-3-3-3--3--3------------3-------||------------------------------------------|
|
| TP TP ~~~~~~|-(19)---15-------15-17b19r(17)b19r==(17)--||------------------------------------------||------------------------------------------||------------------------------------------||------------------------------------------||------------------------------------------|
PM-------------------------------------|----------------------------------------||----------------------------------------||----------------------------------------||----------------------------------------||--5--5--------------5------5----------5-||----------------------------------------|
|
|-12-------12-12-12--------12h15---------||----15b17----------15b17--------15b18r==||----------------------------------------||----------------------------------------||----------------------------------------||----------------------------------------|
--------------------------------------------------------------------||----------------------------------------|-------------------------------||----------------------------------------|-------------------------------||----------------------------------------|-------------------------------||----------------------------------------|-------------------------------||---7-------7---7---7--7-7-7--7-----7--7-|--5-5--5--5-----5--5--5--5--5--||----------------------------------------|-------------------------------|
|
|----------------------------------------|-------------------------------||-(15)b18.5r==(15)-12-15-----12p11-12p11-|-------------------------------||----------------------------------------|-13---12-14p12----12-----------||----------------------------------------|---------------14----14-13-12--||----------------------------------------|-------------------------------||----------------------------------------|-------------------------------|
PM-------------------||-------------------------|------------------||-------------------------|------------------||-------------------------|------------------||-------------------------|------------------||--3-3--3--3--3--3--3-3-3-|-2--2-2-2-2-2-2-2-||-------------------------|------------------|
|
| \2|-------------------------|------------------||-------------------------|------------------||-------------------------|------------------||-------------------------|------------------||-14---13-12--------------|------------------||------------12-11-10-9-8-|-7----------------|
[02:10]
PM------------| PM| PM------| PM--|--------------------------------|-------------------------------------||--------------------------------|-------------------------------------||--------------------------------|-------------------------------------||--------------------------------|-------------------------------------||--------------------3--2--------|--4------3----------------6--5--8-8-7||--0-----0--3--2--0--------3--2--|-------------------4--3--------------|
|
|--------------------------------|-------------------------------------||-15b17====15-15-15-15-15-15-15r-|-(15)b18r(15)b18.5r(15)\---------|--------------------------------|-------------------------------12h14-||--------------------------------|-------------------------------------||--------------------------------|-------------------------------------||--------------------------------|-------------------------------------|
PM---------| PM---||-------------------------------------------||-------------------------------------------||-------------------------------------------||-------------------------------------------||-----------------3-----2-------------------||--0-3---2----0---------------3------2------|
|
| ~~|----------------------------22b24r(22)b24r=||-------------------------------------------||-12---(12)s7h9p7---(7)s==21----------------||-------------------------------------------||-------------------------------------------||-------------------------------------------|
PM----| PM-||--------------------------------------------------------||--------------------------------------------------------||--------------------------------------------------------||--------------------------------------------------------||---4-----4---3-------------2------1---------------------||---------------------4--3-----------------2-------1-----|
|
|-(22)b24r==(22)b24r(22)---------------------------------||------------------------0-------------------------------||--------------------------19b22r(19)b22r(19)b22r(19)b22r||--------------------------------------------------------||--------------------------------------------------------||--------------------------------------------------------|
PM-----------| PM| PM||--------------------------|-----------------||--------------------------|-----------------||--------------------------|-----------------||--------------------------|-----------------||------------------3-2-----|-4-3-----6-5-8-7-||---0-----3---2--0-----3-2-|-----4-3---------|
|
|--------------------------|-----------------||--------------------------|-----------------||-(19)b23---(19)s4---------|-----------------||--------------------------|-----------------||--------------------------|-----------------||--------------------------|-----------------|
PM-----------| PM-----------| PM------|--------------------------------------------|---------------------------||--------------------------------------------|---------------------------||--------------------------------------------|---------------------------||--------------------------------------------|---------------------------||------------------3------2------------------|--4-----3----------2-1-----||--0----3--2----0-----------------3-------2--|----------4------3------2-1|
|
| Gtr V|--------------------------------------------|---------------------------||--------------------------------------------|-------20---20b22===(20)||-19b21---19b21---19b21r(19)b21r(19)b21r(19)-|-19b21---------------------||--------------------------------------------|---------------------------||--------------------------------------------|---------------------------||--------------------------------------------|---------------------------
PM----------------| PM---| PM--------||------------------------------------------------|-----------------------||------------------------------------------------|-----------------------||------------------------------------------------|-----------------------||------------------------------------------------|-----------------------||-----------------------3-----------2------------|---4-----3--------6-5-8||--0-----3-----2-----0----------------3-----2----|------------4---3------|
|
| \1.5_____/ \1.5_______/ \1.5_____/ \2.|------------------------------------------------|-----------------------||-17h20-17h20-17-------17-20p17---------17-20p17-|-(17)-----17-20p17--17)||------------------------------------------------|-----------------------||------------------------------------------------|-----------------------||------------------------------------------------|-----------------------||------------------------------------------------|--------------------12\|
[02:24] Q=145 E5 F5F#5 G5 F#F5 E5 F5 F#5 PM--| PM--| PM---||------------------|---------------------------|------------------------||------------------|---------------------------|------------------------||------------------|---------------------------|------------------------||----2-------------|------5--------------------|--2---------------------||----2-------2-3-4-|------5--------------5-4-3-|--2--------------2--3-4-||----0-------0-1-2-|------3--------------3-2-1-|--0--------------0--1-2-|
|
| / \4 / \4 / \4|------------------|---------------------------|-22b24=====22-22---22r==||------------------|---------------------------|------------------------||-4-(4)------------|-(4)-(4)----(4)-(4)--------|------------------------||-5-(5)------------|-(5)-(5)----(5)-(5)--------|------------------------||-7-(7)------------|-(7)-(7)----(7)-(7)--------|------------------------||------------------|---------------------------|------------------------|
G5|--------------------------------------------------||--------------------------------------------------||--------------------------------------------------||--5-----------------------------------------------||--5-----------------------------------------------||--3------------------------------------------7\---|
|
|-22-----------------------------------------------||----20--------------------------------------------||-------21-19-21-21b24r(21)b24r(21)b24r(21)-(21)\--||--------------------------------------------------||--------------------------------------------------||--------------------------------------------------|
Q=140 E5 F5F#5 G5 F#F5 E5 F5F#5 G5 PM--| PM--| PM--||--------------|--------------|--------------|-------------||--------------|--------------|--------------|-------------||--------------|--------------|--------------|-------------||-2------------|-5------------|-2------------|-5-----------||-2------2-3-4-|-5------5-4-3-|-2------2-3-4-|-5------7\---||-0------0-1-2-|-3------3-2-1-|-0------0-1-2-|-3-----------|
[02:38] Q.=140 N.C. 6/8 Gtrs I, II PM--------------------| PM--------------------||-------------|-------------|-------------|-------------||-------------|-----------6-|-------------|-------------||-------------|---------4---|-------------|-------------||-2-1---0-----|-2-1---3-----|-2-1---0-----|-5-4-------7-||-----3---4-2-|-----3-------|-----3---4-2-|-----5-4-5---||-------------|-------------|-------------|-------------|
4/8 PM--------------| PM-----------------||-------------|--------------|-------------||---------||-------------|--------8-----|-------------||---------||-------------|----------5---|-------------||---------||-2-1---0-----|-2-1-2/-----7-|-2-1---0-----||---------||-----3---4-2-|--------------|-----3---4-2-||-------3-||-------------|--------------|-------------||-0-2-3---|
[02:45] Q=153 F#G5 F#G5 F#G5 F#G5 G#5 F#G5 F#G5 F#G5 F#G5 G#F#5 4/4 9/8|-------------|--------------|-------------||----------------||-------------|--------------|-------------||----------------||-------------|--------------|-------------||----------------||-------------|--------------|-------------||----------------||-4-5---4-5---|-4-5---4-5--6-|-4-5---4-5---||-4-5---4-5--6-4-||-2-3---2-3---|-2-3---2-3--4-|-2-3---2-3---||-2-3---2-3--4-2-|
Q=223 A5 G#5A5 G#5F#G#5 A5 G#5A5 G#5F#G#5 A5 G#5A5 G#5F#G#5 A5 G#5A5 11/8 9/8|-----------------|-----------------|-----------------||--------------||-----------------|-----------------|-----------------||--------------||-----------------|-----------------|-----------------||--------------||-----------------|-----------------|-----------------||--------------||-7--6--7--6--4-6-|-7--6--7--6--4-6-|-7--6--7--6--4-6-||-7--6--7------||-5--4--5--4--2-4-|-5--4--5--4--2-4-|-5--4--5--4--2-4-||-5--4--5------|
Q=152 F#G5 F#G5 F#G5 F#G5 G#5 F#G5 F#G5 F#G5 F#G5 G#F#5 4/4 9/8|-------------|--------------|-------------||----------------||-------------|--------------|-------------||----------------||-------------|--------------|-------------||----------------||-------------|--------------|-------------||----------------||-4-5---4-5---|-4-5---4-5--6-|-4-5---4-5---||-4-5---4-5--6-4-||-2-3---2-3---|-2-3---2-3--4-|-2-3---2-3---||-2-3---2-3--4-2-|
Q=195 H.=H Q=180 N.C. 11/8 Gtr I TP TP TP TP TPTP TP TP TP TP TPTP TP TP TP TP TPTP||-------------------||-----------------|------------------|||o-----------------o||-----------------|------------------|||-------------------||-----------------|------------------|||-------------------||-----------------|------------------|||o-----------------o||-----------------|------------------|||--5--4--5--4--2-4--||-5--4--5--4--2-4-|-5--4--5--4--2-4--|
|
| Gtr II| TP TP TP TP TPTP TP TP TP TP TPTP TP TP TP TP TPTP||-------------------||-----------------|------------------|||o-----------------o||-----------------|------------------|||-------------------||-----------------|------------------|||-------------------||-------------4-6-|-7--6--7--6--4-6--|||o-----------------o||-----------------|------------------|||--5--4--5--4--2-4--||-5--4--5--4------|------------------|
A5 G#5 E5 6/8 PM------------------------------------------||---------------------|-------------|--------------*||---------------------|-------------|--------------*||---------------------|-------------|--------------*||---------------------|-------------|--------------*||-7-7-7-7-7-6-6-6-6-6-|-4-------3---|-2-------2-2--*||-5-5-5-5-5-4-4-4-4-4-|---3-0-3---3-|-0-0-0-0-0-0--*|
End.
Please rate this tab:
x1.0