Atom Smash - Sacrifice tab

Title: Sacrifice
Artist: Atom Smash
Album: Love The Missile
Words: Atom Smash
Music: Atom Smash
Tabber: Sangbraten
Tempo = 175


Legend
L - tied note
x - dead note
h - hammer on/pull off
b - bend
s - slide
~ - vibrato
g - ghost note
> - accentuated note
t - trill
M - palm mute
. - staccato
P - popping (bass)
S - slapping (bass)
+ - tapping
W - wide vibrato
< - fade in
w - whammy bar
= - tremolo picking
v - brush up
^ - brush down
V - pick stroke up
n - pick stroke down

INTROC#|----|----------------------------|----------------------------|G#|----|----------------------------|----------------------------|E |----|----------------------------|----------------------------|B |----|----------------------------|----------------------------|F#|----|--------------------3--0----|----------------------------|B |----|--3--0M-0M-3--0M-0M---------|--5M-3M-0M----0-----0M-0M---|
----------------------------|----------------------------|----------------------------|----------------------------|----------------------------|----------------------------|----------------------------|----------------------------|--3M-0M---------------------|----------------------------|--------6M-5M-3M-5M-3M------|--0M-3M-5M----6M-5M-3M------|
----------------------------|----------------------------|----------------------------|----------------------------|----------------------------|----------------------------|----------------------------|----------------------------|--------------------3--0----|----------------------------|--3--0M-0M-3--0M-0M---------|--5M-3M-0M----0-----0M-0M---|
----------------------------|----------------------------|----------------------------|----------------------------|----------------------------|----------------------------|----------------------------|----------------------------|--3M-0M---------------------|----------------------------|--------6M-5M-3M-5M-3M------|--0M-3M-5M----6M-5M-3M------|
VERSE----------------------------|----------------------------|----------------------------|----------------------------|----------------------------|----------------------------|----------------------------|----------------------------|----------------------------|----------------------------|--3--0--x--3--0--x--3--0----|--3--5--x-----12s------0----|
----------------------------|----------------------------|----------------------------|----------------------------|----------------------------|----------------------------|----------------------------|----------------------------|----------------------------|----------------------------|--3--0--x--3--0--x--3--0----|--3--5--x-----15s------0----|
----------------------------|----------------------------|----------|----------------------------|----------------------------|----------|----------------------------|----------------------------|--7.-7L---|----------------------------|----------------------------|--5.-5L---|----------------------------|----------------------------|--5.-5L---|--3--0--x--3--0--x--3--0----|--3--5--x-----12s------0----|--5.-5L---|
----------------------------|----------------------------|----------------------------|----------------------------|--7-----5.-------5----------|----------------------------|--5-----3.-------3----------|----------------------------|--5-----3.-------3----------|----------------------------|--5-----3.-------3----------|--3--0--x--3--0--x--3--0----|
----------------------------|----------------------------|----------------------------|----------------------------|----------------------------|----------------------------|----------------------------|----------------------------|----------------------------|----------------------------|--3--5--x-----12s------0----|--3--0--x--3--0--x--3--0----|
----------------------------|----------------------------|----------------------------|----------------------------|----------------------------|----------------------------|----------------------------|----------------------------|----------------------------|----------------------------|--3--5--x-----15s------0----|--3--0--x--3--0--x--3--0----|
----------------------------|----------|----------------------------|----------------------------|----------|----------------------------|----------------------------|--7.-7L---|--7-----5.-------5----------|----------------------------|--5.-5L---|--5-----3.-------3----------|----------------------------|--5.-5L---|--5-----3.-------3----------|--3--5--x-----12s------0----|--5.-5L---|--5-----3.-------3----------|
PRE-CHORUS----------------|----------------|----------------|----------------|----------------|----------------|----------------|----------------|--10-10-10-10---|--10-10-10-10---|--7--7--7--7----|--7--7--7--7----|--8--8--8--8----|--8--8--8--8----|--5--5--5--5----|--5--5--5--5----|--8--8--8--8----|--8--8--8--8----|--5--5--5--5----|--5--5--5--5----|--8--8--8--8----|--8--8--8--8----|--5--5--5--5----|--5--5--5--5----|
----------------|----------------|----------------------------|----------------|----------------|----------------------------|--5--5--5--5----|--5--5--5--5----|--7-----7.------------------|--3--3--3--3----|--3--3--3--3----|--5-----5.----------x--x----|--3--3--3--3----|--3--3--3--3----|--5-----5.----------x--x----|--3--3--3--3----|--3--3--3--3----|--5-----5.----------x--x----|
CHORUS----------------------------||---------------|----------------|----------------|----------------------------||---------------|----------------|----------------|--10----10.-----------------||o2--2--2--2----|--2--2--2--2----|--10-10-10-10---|--8-----8.----------x--x----||o0--0--0--0----|--0--0--0--0----|--8--8--8--8----|--8-----8.----------x--x----||-0--0--0--0----|--0--0--0--0----|--8--8--8--8----|--8-----8.----------x--x----||-0--0--0--0----|--0--0--0--0----|--8--8--8--8----|
----------------|----------------|----------------|----------------------------|----------------|----------------|----------------|----------------------------|--10-10-10-10---|--7--7--7--7----|--7--7--7--7----|--5-----5.------------------|--8--8--8--8----|--5--5--5--5----|--5--5--5--5----|--3-----3.----------x--x----|--8--8--8--8----|--5--5--5--5----|--5--5--5--5----|--3-----3.----------x--x----|--8--8--8--8----|--5--5--5--5----|--5--5--5--5----|--3-----3.----------x--x----|
BRIDGE---------------------------||----------------------------|---------------------------||----------------------------|--7-----7.----------------o||----------------------------|--5-----5.----------x--x--o||----------------------------|--5-----5.----------x--x---||--------------------3--0----|--5-----5.----------x--x---||--3--0M-0M-3--0M-0M---------|
----------------------------|----------------------------|----------------------------|----------------------------|----------------------------|----------------------------|----------------------------|----------------------------|----------------------------|--3M-0M---------------------|--5M-3M-0M----0-----0M-0M---|--------6M-5M-3M-5M-3M------|
VERSE----------------------------|----------------------------|----------------------------|----------------------------|----------------------------|----------------------------|----------------------------|----------------------------|----------------------------|----------------------------|--0M-3M-5M----6M-5M-3M------|--3--0--x--3--0--x--3--0----|
----------------------------|----------------------------|----------------------------|----------------------------|----------------------------|----------------------------|----------------------------|----------------------------|----------------------------|----------------------------|--3--5--x-----12s------0----|--3--0--x--3--0--x--3--0----|
----------------------------|----------------------------|----------------------------|----------------------------|----------------------------|----------------------------|----------------------------|----------------------------|----------------------------|----------------------------|--3--5--x-----15s------0----|--3--0--x--3--0--x--3--0----|
----------------------------|----------|----------------------------|----------------------------|----------|----------------------------|----------------------------|--7.-7L---|--7-----5.-------5----------|----------------------------|--5.-5L---|--5-----3.-------3----------|----------------------------|--5.-5L---|--5-----3.-------3----------|--3--5--x-----12s------0----|--5.-5L---|--5-----3.-------3----------|
----------------------------|----------------------------|----------------------------|----------------------------|----------------------------|----------------------------|----------------------------|----------------------------|----------------------------|----------------------------|--3--0--x--3--0--x--3--0----|--3--5--x-----12s------0----|
----------------------------|----------------------------|----------------------------|----------------------------|----------------------------|----------------------------|----------------------------|----------------------------|----------------------------|----------------------------|--3--0--x--3--0--x--3--0----|--3--5--x-----15s------0----|
----------------------------|----------------------------|----------|----------------------------|----------------------------|----------|----------------------------|----------------------------|--7.-7L---|----------------------------|----------------------------|--5.-5L---|----------------------------|----------------------------|--5.-5L---|--3--0--x--3--0--x--3--0----|--3--5--x-----12s------0----|--5.-5L---|
PRE-CHORUS----------------------------|----------------|----------------|----------------|----------------------------|----------------|----------------|----------------|--7-----5.-------5----------|--10-10-10-10---|--10-10-10-10---|--7--7--7--7----|--5-----3.-------3----------|--8--8--8--8----|--8--8--8--8----|--5--5--5--5----|--5-----3.-------3----------|--8--8--8--8----|--8--8--8--8----|--5--5--5--5----|--5-----3.-------3----------|--8--8--8--8----|--8--8--8--8----|--5--5--5--5----|
----------------|----------------|----------------|----------------------------|----------------|----------------|----------------|----------------------------|--7--7--7--7----|--5--5--5--5----|--5--5--5--5----|--7-----7.------------------|--5--5--5--5----|--3--3--3--3----|--3--3--3--3----|--5-----5.----------x--x----|--5--5--5--5----|--3--3--3--3----|--3--3--3--3----|--5-----5.----------x--x----|--5--5--5--5----|--3--3--3--3----|--3--3--3--3----|--5-----5.----------x--x----|
CHORUS----------------------------||---------------|----------------|----------------|----------------------------||---------------|----------------|----------------|--10----10.-----------------||o2--2--2--2----|--2--2--2--2----|--10-10-10-10---|--8-----8.----------x--x----||o0--0--0--0----|--0--0--0--0----|--8--8--8--8----|--8-----8.----------x--x----||-0--0--0--0----|--0--0--0--0----|--8--8--8--8----|--8-----8.----------x--x----||-0--0--0--0----|--0--0--0--0----|--8--8--8--8----|
----------------|----------------|----------------|----------------------------|----------------|----------------|----------------|----------------------------|--10-10-10-10---|--7--7--7--7----|--7--7--7--7----|--5-----5.------------------|--8--8--8--8----|--5--5--5--5----|--5--5--5--5----|--3-----3.----------x--x----|--8--8--8--8----|--5--5--5--5----|--5--5--5--5----|--3-----3.----------x--x----|--8--8--8--8----|--5--5--5--5----|--5--5--5--5----|--3-----3.----------x--x----|
---------------------------|||---------------------------|||--7-----7.----------------o|||--5-----5.----------x--x--o|||--5-----5.----------x--x---|||--5-----5.----------x--x---|||
Tap to rate this tab
 
# A B C D E F G H I J K L M N O P Q R S T U V W X Y Z