August Burns Red - Carpe Diem tab version 2

Lead
Drop C (CGCFAD)

Legend
L - tied note
x - dead note
h - hammer on/pull off
b - bend
s - slide
~ - vibrato
g - ghost note
> - accentuated note
t - trill
M - palm mute
. - staccato
P - popping (bass)
S - slapping (bass)
+ - tapping
W - wide vibrato
< - fade in
w - whammy bar
= - tremolo picking
v - brush up
^ - brush down
V - pick stroke up
n - pick stroke down

^ ^ ^ D |-------|----|----|----|--3-----------------3-----3--------3--------3-------|A |-------|----|----|----|-----3-----3--------3--------3-----3--------3-------|F |-------|----|----|----|--------0-----------0-----------0--0--------0-------|C |-------|----|----|----|----------------------------------------------------|G |-------|----|----|----|----------------------------------------------------|C |-------|----|----|----|----------------------------------------------------|
^ ^ ^ --3-----------------3-----3--------3--------3-------|-----4-----4--------4--------4-----4--------4-------|--------0-----------0-----------0--0--------0-------|----------------------------------------------------|----------------------------------------------------|----------------------------------------------------|
^ ^ ^ --3-----------------3-----3--------3--------3-------|-----1-----1--------1--------1-----1--------1-------|--------0-----------0-----------0--0--------0-------|----------------------------------------------------|----------------------------------------------------|----------------------------------------------------|
^ ^ ^ --3-----------------3-----3--------3--------3-------|-----3-----3--------3--------3-----3--------3-------|--------0-----------0-----------0--0--------0-------|----------------------------------------------------|----------------------------------------------------|----------------------------------------------------|
^ ^ ^ --3-----------------3-----3--------3--------3-------|-----3-----3--------3--------3-----3--------3-------|--------0-----------0-----------0--0--------0-------|----------------------------------------------------|----------------------------------------------------|----------------------------------------------------|
^ ^ ^ --3-----------------3-----3--------3--------3-------|-----4-----4--------4--------4-----4--------4-------|--------0-----------0-----------0--0--------0-------|----------------------------------------------------|----------------------------------------------------|----------------------------------------------------|
^ ^ ^ --3-----------------3-----3--------3--------3-------|-----1-----1--------1--------1-----1--------1-------|--------0-----------0-----------0--0--------0-------|----------------------------------------------------|----------------------------------------------------|----------------------------------------------------|
^ ^ ^ --3-----------------3-----3--------3--------3-------|-----3-----3--------3--------3-----3--------3-------|--------0-----------0-----------0--0--------0-------|----------------------------------------------------|----------------------------------------------------|----------------------------------------------------|
--15----------------15----------------15------------|-----15----15----------15----15----------15----15---|--------12----------------12----------------12------|----------------------------------------------------|----------------------------------------------------|----------------------------------------------------|
--15----------------15----------------15------------|-----15----15----------15----15----------15----15---|--------12----------------12----------------12------|----------------------------------------------------|----------------------------------------------------|----------------------------------------------------|
--15----------------15----------------15------------|-----15----15----------15----15----------15----15---|--------12----------------12----------------12------|----------------------------------------------------|----------------------------------------------------|----------------------------------------------------|
--15----------------15----------------15------------|-----15----15----------15----15----------15----15---|--------12----------------12----------------12------|----------------------------------------------------|----------------------------------------------------|----------------------------------------------------|
--15----------------15----------------15------------|-----15----15----------15----15----------15----15---|--------12----------------12----------------12------|----------------------------------------------------|----------------------------------------------------|----------------------------------------------------|
--15----------------15----------------15------------|-----15----15----------15----15----------15----15---|--------12----------------12----------------12------|----------------------------------------------------|----------------------------------------------------|----------------------------------------------------|
--15----------------15----------------15------------|-----15----15----------15----15----------15----15---|--------12----------------12----------------12------|----------------------------------------------------|----------------------------------------------------|----------------------------------------------------|
--15----------15----------15----------15------------|-----15----15----15----15----15----15---------------|--------12----------12----------12------------------|----------------------------------------------------|----------------------------------------------------|----------------------------------------------------|
----------------------------------------------------|----------------------------------------------------|----------------------------------------------------|--5--5--5--5--5--5--5--5--5--5--5--5--5--3--3--3----|--5--5--5--5--5--5--5--5--5--5--5--5--5--3--3--3----|--5--5--5--5--5--5--5--5--5--5--5--5--5--3--3--3----|
----------------------------------------------------|----------------------------------------------------|----------------------------------------------------|--3s-5--5--5--5--5--5--5--5--5--5--5--5--3--3--3----|--3s-5--5--5--5--5--5--5--5--5--5--5--5--3--3--3----|--3s-5--5--5--5--5--5--5--5--5--5--5--5--3--3--3----|
----------------------------------------------------|----------------------------------------------------|--8--8--8--8--8--8--8--8--8--8--8--8--8--8--8--8----|--8--8--8--8--8--8--8--8--8--8--8--8--8--8--8--8----|--6--6--6--6--6--6--6--6--6--6--6--6--6--6--6--6----|----------------------------------------------------|
----------------------------------------------------|----------------------------------------------------|--5--5--5--5--5--5--5--5--5--5--5--5--5--5--5--5----|--5--5--5--5--5--5--5--5--5--5--5--5--5--5--5--5----|--3--3--3--3--3--3--3--3--3--3--3--3--3--3--3--3----|----------------------------------------------------|
----------------------------------------------------|----------------------------------------------------|----------------------------------------------------|--5--5--5--5--5--5--5--5--5--5--5--5--5--3--3--3----|--5--5--5--5--5--5--5--5--5--5--5--5--5--3--3--3----|--5--5--5--5--5--5--5--5--5--5--5--5--5--3--3--3----|
----------------------------------------------------|----------------------------------------------------|----------------------------------------------------|--3s-5--5--5--5--5--5--5--5--5--5--5--5--3--3--3----|--3s-5--5--5--5--5--5--5--5--5--5--5--5--3--3--3----|--3s-5--5--5--5--5--5--5--5--5--5--5--5--3--3--3----|
----------------------------------------------------|----------------------------------------------------|--8--8--8--8--8--8--8--8--8--8--8--8--8--8--8--8----|--8--8--8--8--8--8--8--8--8--8--8--8--8--8--8--8----|--6--6--6--6--6--6--6--6--6--6--6--6--6--6--6--6----|----------------------------------------------------|
----------------------------------------------------|----------------------------------------------------|--5--5--5--5--5--5--5--5----------------------------|--5--5--5--5--5--5--5--5--3--3--3--3--3--3--3--3----|--3--3--3--3--3--3--3--3--3--3--3--3--3--3--3--3----|--------------------------3--3--3--3--3--3--3--3----|
^ ^ ^ --3-----------------3-----3--------3--------3-------|-----3-----3--------3--------3-----3--------3-------|--------0-----------0-----------0--0--------0-------|----------------------------------------------------|----------------------------------------------------|----------------------------------------------------|
^ ^ ^ --3-----------------3-----3--------3--------3-------|-----3-----3--------3--------3-----3--------3-------|--------0-----------0-----------0--0--------0-------|----------------------------------------------------|----------------------------------------------------|----------------------------------------------------|
^ ^ ^ --3-----------------3-----3--------3--------3-------|-----4-----4--------4--------4-----4--------4-------|--------0-----------0-----------0--0--------0-------|----------------------------------------------------|----------------------------------------------------|----------------------------------------------------|
^ ^ ^ --3-----------------3-----3--------3--------3-------|-----1-----1--------1--------1-----1--------1-------|--------0-----------0-----------0--0--------0-------|----------------------------------------------------|----------------------------------------------------|----------------------------------------------------|
^ ^ ^ --3-----------------3-----3--------3--------3-------|-----3-----3--------3--------3-----3--------3-------|--------0-----------0-----------0--0--------0-------|----------------------------------------------------|----------------------------------------------------|----------------------------------------------------|
^ ^ ^ --3-----------------3-----3--------3--------3-------|-----3-----3--------3--------3-----3--------3-------|--------0-----------0-----------0--0--------0-------|----------------------------------------------------|----------------------------------------------------|----------------------------------------------------|
^ ^ ^ --3-----------------3-----3--------3--------3-------|-----4-----4--------4--------4-----4--------4-------|--------0-----------0-----------0--0--------0-------|----------------------------------------------------|----------------------------------------------------|----------------------------------------------------|
^ ^ ^--3-----------------3-----3--------3--------3-------|-----1-----1--------1--------1-----1--------1-------|--------0-----------0-----------0--0--------0-------|----------------------------------------------------|----------------------------------------------------|----------------------------------------------------|
----------------------------------------------------|----------------------------------------------------|--12s12-12-12-12------------------------------------|--13s13-13-13-13------------------------------------|----------------------------------------------------|----------------------------------------------------|
----------------------------------------------------|-------|----------------------------------------------------|-------|--------------12L---------------------12------------|--15---|--------13-12---------------------------------------|-------|--10s13---------------------------------------------|-------|----------------------------------------------------|-------|
-----15L---------------------------------15---------|----------------------------------------------------|--12------------------------------------------------|----------------------------------------------------|----------------------------------------------------|----------------------------------------------------|
----------------------------------------------------|-------|----|----|----|--------------------------16-------15-------13L-----|--13---|----|----|----|----------------------------------------------------|-------|----|----|----|--------13-12-12------------------------------------|-------|----|----|----|--10s13---------------------------------------------|-------|----|----|----|----------------------------------------------------|-------|----|----|----|
----|----|----|----|----|----|----|----|----|----|----|----|----|----|----|----|----|----|----|----|----|----|----|----|----|----|----|----|----|----|----|----|----|----|----|----|----|----|----|----|----|----|----|----|----|----|----|----|----|----|----|----|----|----|----|----|----|----|----|----|----|----|----|----|----|----|----|----|----|----|----|----|----|----|----|----|----|----|----|----|----|----|----|----|----|----|----|----|----|----|----|----|----|----|----|----|
----|----|----|----------------------------|----------------------------|----|----|----|--8--8--11-8L-8--8--11-8----|--8--8--11-8L-8--8--11-8----|----|----|----|----------------------------|----------------------------|----|----|----|----------------------------|----------------------------|----|----|----|----------------------------|----------------------------|----|----|----|----------------------------|----------------------------|
----------------------------|----------------------------|--8--8--11-8L-8--8--11-8----|--8--8--11-8L----8--6s------|----------------------------|----------------------------|----------------------------|----------------------------|----------------------------|----------------------------|----------------------------|----------------------------|
----------------------------|----------------------------|--8L----------8L-8s-10s-----|--11L---------11L11s13s-----|----------------------------|----------------------------|----------------------------|----------------------------|----------------------------|----------------------------|----------------------------|----------------------------|
----------------------------|-------|--15L---------15L15s18s-----|--20---|----------------------------|-------|----------------------------|-------|----------------------------|-------|----------------------------|-------|
----------------------------------------------------|----------------------------------------------------|----------------------------------------------------|--5--5--5--5--5--5--5--5--5--5--5--5--5--3--3--3----|--5--5--5--5--5--5--5--5--5--5--5--5--5--3--3--3----|--5--5--5--5--5--5--5--5--5--5--5--5--5--3--3--3----|
----------------------------------------------------|----------------------------------------------------|----------------------------------------------------|--3s-5--5--5--5--5--5--5--5--5--5--5--5--3--3--3----|--3s-5--5--5--5--5--5--5--5--5--5--5--5--3--3--3----|--3s-5--5--5--5--5--5--5--5--5--5--5--5--3--3--3----|
----------------------------------------------------|----------------------------------------------------|--8--8--8--8--8--8--8--8--8--8--8--8--8--8--8--8----|--8--8--8--8--8--8--8--8--8--8--8--8--8--8--8--8----|--6--6--6--6--6--6--6--6--6--6--6--6--6--6--6--6----|----------------------------------------------------|
----------------------------------------------------|----------------------------------------------------|--5--5--5--5--5--5--5--5--5--5--5--5--5--5--5--5----|--5--5--5--5--5--5--5--5--5--5--5--5--5--5--5--5----|--3--3--3--3--3--3--3--3--3--3--3--3--3--3--3--3----|----------------------------------------------------|
----------------------------------------------------|----------------------------------------------------|----------------------------------------------------|--5--5--5--5--5--5--5--5--5--5--5--5--5--3--3--3----|--5--5--5--5--5--5--5--5--5--5--5--5--5--3--3--3----|--5--5--5--5--5--5--5--5--5--5--5--5--5--3--3--3----|
----------------------------------------------------|----------------------------------------------------|----------------------------------------------------|--3s-5--5--5--5--5--5--5--5--5--5--5--5--3--3--3----|--3s-5--5--5--5--5--5--5--5--5--5--5--5--3--3--3----|--3s-5--5--5--5--5--5--5--5--5--5--5--5--3--3--3----|
----------------------------------------------------|----------------------------------------------------|--8--8--8--8--8--8--8--8--8--8--8--8--8--8--8--8----|--8--8--8--8--8--8--8--8--8--8--8--8--8--8--8--8----|--6--6--6--6--6--6--6--6--6--6--6--6--6--6--6--6----|----------------------------------------------------|
----------------------------------------------------|--------------------------------------16------------|--5--5--5--5--5--5--5--5----------------------------|--5--5--5--5--5--5--5--5--3--3--3--3----------------|--3--3--3--3--3--3--3--3--3--3--3--3----------------|--------------------------3--3--3--3----------------|
----------------------------|----------------------------|--15-------15-13-16-16-15---|--15-------15-20-20-20-16---|----------------------------|----------------------------|----------------------------|----------------------------|----------------------------|----------------------------|----------------------------|----------------------------|
----------------------------|----------------------------|--15-------15-13-16-16-15---|--15-------15-10-11-11-13---|----------------------------|----------------------------|----------------------------|----------------------------|----------------------------|----------------------------|----------------------------|----------------------------|
----------------------------|----------------------------|--15-------15-13-16-16-15---|--15-------15-20-20-20-16---|----------------------------|----------------------------|----------------------------|----------------------------|----------------------------|----------------------------|----------------------------|----------------------------|
----------------------------|----------------------------|--15-------15-13-16-16-15---|--15-------15-10-11-11-13---|----------------------------|----------------------------|----------------------------|----------------------------|----------------------------|----------------------------|----------------------------|----------------------------|
----------------------------|----------------------------|-------|--15-------15-13----16------|--15L------15-20----16------|--15---|----------------------------|----------------------------|-------|----------------------------|----------------------------|-------|----------------------------|----------------------------|-------|----------------------------|----------------------------|-------|
----------------------------|--11L------11-10L---10------|----------------------------|----------------------------|----------------------------|----------------------------|
----------------------------------------------------|----------------------------------------------------|--------------------12-------12-------------12------|-----13-12----12-13----12-------13-12-10-12----13---|--10-------10---------------------------------------|----------------------------------------------------|
--------------------15-------15-------------15------|-----15-13----13-15----15-------15----13-15----15---|--12-------12----------------------12---------------|----------------------------------------------------|----------------------------------------------------|----------------------------------------------------|
----------------------------------------------------||----------------------------------------------------||----------------------------------------------------||--5-------------------------------------------------||--5-------------------------------------------------||--5-------------------------------------------------||_________________________________________________________________________________________________________________________________________________________________________________
Rhythm Drop C (CGCFAD) Legend L - tied note x - dead note h - hammer on/pull off b - bend s - slide ~ - vibrato g - ghost note > - accentuated note t - trill M - palm mute . - staccato P - popping (bass) S - slapping (bass) + - tapping W - wide vibrato < - fade in w - whammy bar = - tremolo picking v - brush up ^ - brush down V - pick stroke up n - pick stroke down
D |----------------------------------------------------|A |----------------------------------------------------|F |--0--------0--------0--------0--------0-----0-------|C |-----5--5-----5--5-----5--5-----5--5-----5-----5----|G |----------------------------------------------------|C |----------------------------------------------------|
----------------------------------------------------|----------------------------------------------------|--0--------0--------0--------0--------0-----0-------|-----5--5-----5--5-----5--5-----5--5-----5-----5----|----------------------------------------------------|----------------------------------------------------|
----------------------------------------------------|----------------------------------------------------|--0--------0--------0--------0--------0-----0-------|-----5--5-----5--5-----5--5-----5--5-----5-----5----|----------------------------------------------------|----------------------------------------------------|
----------------------------------------------------|----------------------------------------------------|--0--------0--------0--------0--------0-----0-------|-----5--5-----5--5-----5--5-----5--5-----5-----5----|----------------------------------------------------|----------------------------------------------------|
----------------------------------------------------|----------------------------------------------------|--0--------0--------0--------0--------0-----0-------|-----5--5-----5--5-----5--5-----5--5-----5-----5----|----------------------------------------------------|----------------------------------------------------|
----------------------------------------------------|----------------------------------------------------|--0--------0--------0--------0--------0-----0-------|-----5--5-----5--5-----5--5-----5--5-----5-----5----|----------------------------------------------------|----------------------------------------------------|
----------------------------------------------------|----------------------------------------------------|--0--------0--------0--------0--------0-----0-------|-----5--5-----5--5-----5--5-----5--5-----5-----5----|----------------------------------------------------|----------------------------------------------------|
----------------------------------------------------|----------------------------------------------------|--0--------0--------0--------0--------0-----0-------|-----5--5-----5--5-----5--5-----5--5-----5-----5----|----------------------------------------------------|----------------------------------------------------|
----------------------------------------------------|----------------------------------------------------|--0--------0--------0--------0--------0-----0-------|-----5--5-----5--5-----5--5-----5--5-----5-----5----|----------------------------------------------------|----------------------------------------------------|
----------------------------------------------------|----------------------------------------------------|--0--------0--------0--------0--------0-----0-------|-----5--5-----5--5-----5--5-----5--5-----5-----5----|----------------------------------------------------|----------------------------------------------------|
----------------------------------------------------|----------------------------------------------------|--0--------0--------0--------0--------0-----0-------|-----5--5-----5--5-----5--5-----5--5-----5-----5----|----------------------------------------------------|----------------------------------------------------|
----------------------------------------------------|----------------------------------------------------|--0--------0--------0--------0--------0-----0-------|-----5--5-----5--5-----5--5-----5--5-----5-----5----|----------------------------------------------------|----------------------------------------------------|
----------------------------------------------------|----------------------------------------------------|--0--------0--------0--------0--------0-----0-------|-----5--5-----5--5-----5--5-----5--5-----5-----5----|----------------------------------------------------|----------------------------------------------------|
----------------------------------------------------|----------------------------------------------------|--0--------0--------0--------0--------0-----0-------|-----5--5-----5--5-----5--5-----5--5-----5-----5----|----------------------------------------------------|----------------------------------------------------|
----------------------------------------------------|----------------------------------------------------|--0--------0--------0--------0--------0-----0-------|-----5--5-----5--5-----5--5-----5--5-----5-----5----|----------------------------------------------------|----------------------------------------------------|
----------------------------------------------------|----------------------------------------------------|--0--------0--------0--------0--------0-----0-------|-----5--5-----5--5-----5--5-----5--5-----5-----5----|----------------------------------------------------|----------------------------------------------------|
----------------------------------------------------|----------------------------------------------------|--12-12-12-12-12-12-12-12-12-12-12-12-14-14-14-14---|----------------------------------------------------|----------------------------------------------------|----------------------------------------------------|
----------------------------------------------------|--------------------------------------13-13-13-13---|--15-15-15-15-15-15-15-15-15-15-15-15---------------|----------------------------------------------------|----------------------------------------------------|----------------------------------------------------|
----------------------------------------------------|--15-15-15-15-15-15-15-15-15-15-15-15-15-15-15-15---|----------------------------------------------------|----------------------------------------------------|----------------------------------------------------|----------------------------------------------------|
----------------------------------------------------|----------------------------------------------------|----------------------------------------------------|--5--5--5--5--5--5--5--5--5--5--5--5--5-------------|--5--5--5--5--5--5--5--5--5--5--5--5--5-------------|--5--5--5--5--5--5--5--5--5--5--5--5--5-------------|
----------------------------------------------------|----------------------------------------------------|----------------------------------------------------|--5--5--5--5--5--5--5--5--5--5--5--5--5--3--3--3----|--5--5--5--5--5--5--5--5--5--5--5--5--5--3--3--3----|--5--5--5--5--5--5--5--5--5--5--5--5--5--3--3--3----|
----------------------------------------------------|----------------------------------------------------|----------------------------------------------------|--3s-5--5--5--5--5--5--5--5--5--5--5--5--3--3--3----|--3s-5--5--5--5--5--5--5--5--5--5--5--5--3--3--3----|--3s-5--5--5--5--5--5--5--5--5--5--5--5--3--3--3----|
----------------------------------------------------|----------------------------------------------------|--8--8--8--8--8--8--8--8--8--8--8--8--8--8--8--8----|--8--8--8--8--8--8--8--8--8--8--8--8--8--8--8--8----|--6--6--6--6--6--6--6--6--6--6--6--6--6--6--6--6----|----------------------------------------------------|
----------------------------------------------------|----------------------------------------------------|--5--5--5--5--5--5--5--5--5--5--5--5--5--5--5--5----|--5--5--5--5--5--5--5--5--5--5--5--5--5--5--5--5----|--3--3--3--3--3--3--3--3--3--3--3--3--3--3--3--3----|----------------------------------------------------|
----------------------------------------------------|----------------------------------------------------|----------------------------------------------------|--5--5--5--5--5--5--5--5--5--5--5--5--5--3--3--3----|--5--5--5--5--5--5--5--5--5--5--5--5--5--3--3--3----|--5--5--5--5--5--5--5--5--5--5--5--5--5--3--3--3----|
----------------------------------------------------|----------------------------------------------------|----------------------------------------------------|--3s-5--5--5--5--5--5--5--5--5--5--5--5--3--3--3----|--3s-5--5--5--5--5--5--5--5--5--5--5--5--3--3--3----|--3s-5--5--5--5--5--5--5--5--5--5--5--5--3--3--3----|
----------------------------------------------------|----------------------------------------------------|--8--8--8--8--8--8--8--8--8--8--8--8--8--8--8--8----|--8--8--8--8--8--8--8--8--8--8--8--8--8--8--8--8----|--6--6--6--6--6--6--6--6--6--6--6--6--6--6--6--6----|----------------------------------------------------|
----------------------------------------------------|----------------------------------------------------|--5--5--5--5--5--5--5--5----------------------------|--5--5--5--5--5--5--5--5--3--3--3--3--3--3--3--3----|--3--3--3--3--3--3--3--3--3--3--3--3--3--3--3--3----|--------------------------3--3--3--3--3--3--3--3----|
----------------------------------------------------|----------------------------------------------------|----------------------------------------------------|--5--5--5--5--5--5--5--5--5--5--5--5--5--3--3--3----|--5--5--5--5--5--5--5--5--5--5--5--5--5--3--3--3----|--5--5--5--5--5--5--5--5--5--5--5--5--5--3--3--3----|
----------------------------------------------------|----------------------------------------------------|----------------------------------------------------|--3s-5--5--5--5--5--5--5--5--5--5--5--5--3--3--3----|--3s-5--5--5--5--5--5--5--5--5--5--5--5--3--3--3----|--3s-5--5--5--5--5--5--5--5--5--5--5--5--3--3--3----|
----------------------------------------------------|----------------------------------------------------|--8--8--8--8--8--8--8--8--8--8--8--8--8--8--8--8----|--8--8--8--8--8--8--8--8--8--8--8--8--8--8--8--8----|--6--6--6--6--6--6--6--6--6--6--6--6--6--6--6--6----|----------------------------------------------------|
----------------------------------------------------|----------------------------------------------------|--5--5--5--5--5--5--5--5--5--5--5--5--5--5--5--5----|--5--5--5--5--5--5--5--5--5--5--5--5--5--5--5--5----|--3--3--3--3--3--3--3--3--3--3--3--3--3--3--3--3----|----------------------------------------------------|
----------------------------------------------------|----------------------------------------------------|----------------------------------------------------|--5--5--5--5--5--5--5--5--5--5--5--5--5--3--3--3----|--5--5--5--5--5--5--5--5--5--5--5--5--5--3--3--3----|--5--5--5--5--5--5--5--5--5--5--5--5--5--3--3--3----|
----------------------------------------------------|----------------------------------------------------|----------------------------------------------------|--3s-5--5--5--5--5--5--5--5--5--5--5--5--3--3--3----|--3s-5--5--5--5--5--5--5--5--5--5--5--5--3--3--3----|--3s-5--5--5--5--5--5--5--5--5--5--5--5--3--3--3----|
----------------------------------------------------|----------------------------------------------------|--8--8--8--8--8--8--8--8--8--8--8--8--8--8--8--8----|--8--8--8--8--8--8--8--8--8--8--8--8--8--8--8--8----|--6--6--6--6--6--6--6--6--6--6--6--6--6--6--6--6----|----------------------------------------------------|
----------------------------------------------------|----------------------------------------------------|--5--5--5--5--5--5--5--5----------------------------|--5--5--5--5--5--5--5--5--3--3--3--3--3--3--3--3----|--3--3--3--3--3--3--3--3--3--3--3--3--3--3--3--3----|--------------------------3--3--3--3--3--3--3--3----|
----------------------------------------------------|----------------------------------------------------|--12s12-12-12-12------------------------------------|--13s13-13-13-13------------------------------------|----------------------------------------------------|----------------------------------------------------|
----------------------------------------------------|----------------------------------------------------|--------------12L---------------------12------------|--------13-12---------------------------------------|--10s13---------------------------------------------|----------------------------------------------------|
----------------------------------------------------|----------------------------------------------------|----------------------------------------------------|--5--5-----5--5--5--5--5-----5--5--5--5--5--5--5----|--5--5-----5--5--5--5--5-----5--5--5--5--5--5--5----|--5--5-----5--5--5--5--5-----5--5--5--5--5--5--5----|
----------------------------------------------------|----------------------------------------------------|----------------------------------------------------|--5--5-----5--5--5--5--5-----5--5--5--5--5--5--5----|--5--5-----5--5--5--5--5-----5--5--5--5--5--5--5----|--5--5-----5--5--5--5--5-----5--5--5--5--5--5--5----|
----------------------------------------------------|----------------------------------------------------|----------------------------------------------------|--------13-12-12L---------------------12------------|--10s13---------------------------------------------|----------------------------------------------------|
----------------------------------------------------|----|----|----|----|----|----------------------------------------------------|----|----|----|----|----|--------------12L---------------------12------------|----|----|----|----|----|--------13-12---------------------------------------|----|----|----|----|----|--10s13---------------------------------------------|----|----|----|----|----|----------------------------------------------------|----|----|----|----|----|
----|----|----|----|----|----|----|----|----|----|----|----|----|----|----|----|----|----|----|----|----|----|----|----|----|----|----|----|----|----|----|----|----|----|----|----|----|----|----|----|----|----|----|----|----|----|----|----|----|----|----|----|----|----|----|----|----|----|----|----|----|----|----|----|----|----|----|----|----|----|----|----|----|----|----|----|----|----|----|----|----|----|----|----|----|----|----|----|----|----|----|----|----|----|----|----|
----|----------------------------------------------------|----|----------------------------------------------------|----|--8--8--8--8--8--8--8--8--8--8--8--8--8--8--8--8----|----|--8--8--8--8--8--8--8--8--8--8--8--8--8--8--8--8----|----|--6--6--6--6--6--6--6--6--6--6--6--6--6--6--6--6----|----|----------------------------------------------------|
----------------------------------------------------|----------------------------------------------------|----------------------------------------------------|--5--5--5--5--5--5--5--5--5--5--5--5--5--5--5--5----|--5--5--5--5--5--5--5--5--5--5--5--5--5--5--5--5----|--5--5--5--5--5--5--5--5--5--5--5--5--5--5--5--5----|
----------------------------------------------------|----------------------------------------------------|--8--8--8--8--8--8--8--8--8--8--8--8--8--8--8--8----|--8--8--8--8--8--8--8--8--8--8--8--8--8--8--8--8----|--6--6--6--6--6--6--6--6--6--6--6--6--6--6--6--6----|----------------------------------------------------|
----------------------------------------------------|----------------------------------------------------|----------------------------------------------------|--5--5--5--5--5--5--5--5--5--5--5--5--5--5--5--5----|--5--5--5--5--5--5--5--5--5--5--5--5--5--5--5--5----|--5--5--5--5--5--5--5--5--5--5--5--5--5--5--5--5----|
----------------------------------------------------|----------------------------------------------------|--8--8--8--8--8--8--8--8--8--8--8--8--8--8--8--8----|--8--8--8--8--8--8--8--8--8--8--8--8--8--8--8--8----|--6--6--6--6--6--6--6--6--6--6--6--6--6--6--6--6----|----------------------------------------------------|
----------------------------------------------------|----------------------------------------------------|----------------------------------------------------|--5--5--5--5--5--5--5--5--5--5--5--5--5--5--5--5----|--5--5--5--5--5--5--5--5--5--5--5--5--5--5--5--5----|--5--5--5--5--5--5--5--5--5--5--5--5--5--5--5--5----|
----------------------------------------------------|----------------------------------------------------|--8--8--8--8--8--8--8--8--8--8--8--8--8--8--8--8----|--8--8--8--8--8--8--8--8--8--8--8--8--8--8--8--8----|--6--6--6--6--6--6--6--6--6--6--6--6--6--6--6--6----|----------------------------------------------------|
----------------------------------------------------|----------------------------------------------------|----------------------------------------------------|--5--5--5--5--5--5--5--5--5--5--5--5--5--5--5--5----|--5--5--5--5--5--5--5--5--5--5--5--5--5--5--5--5----|--5--5--5--5--5--5--5--5--5--5--5--5--5--5--5--5----|
----------------------------------------------------|----------------------------------------------------|----------------------------------------------------|--5--5--5--5--5--5--5--5--5--5--5--5--5--3--3--3----|--5--5--5--5--5--5--5--5--5--5--5--5--5--3--3--3----|--5--5--5--5--5--5--5--5--5--5--5--5--5--3--3--3----|
----------------------------------------------------|----------------------------------------------------|----------------------------------------------------|--3s-5--5--5--5--5--5--5--5--5--5--5--5--3--3--3----|--3s-5--5--5--5--5--5--5--5--5--5--5--5--3--3--3----|--3s-5--5--5--5--5--5--5--5--5--5--5--5--3--3--3----|
----------------------------------------------------|----------------------------------------------------|--8--8--8--8--8--8--8--8--8--8--8--8--8--8--8--8----|--8--8--8--8--8--8--8--8--8--8--8--8--8--8--8--8----|--6--6--6--6--6--6--6--6--6--6--6--6--6--6--6--6----|----------------------------------------------------|
----------------------------------------------------|----------------------------------------------------|--5--5--5--5--5--5--5--5--5--5--5--5--5--5--5--5----|--5--5--5--5--5--5--5--5--5--5--5--5--5--5--5--5----|--3--3--3--3--3--3--3--3--3--3--3--3--3--3--3--3----|----------------------------------------------------|
----------------------------------------------------|----------------------------------------------------|----------------------------------------------------|--5--5--5--5--5--5--5--5--5--5--5--5--5--3--3--3----|--5--5--5--5--5--5--5--5--5--5--5--5--5--3--3--3----|--5--5--5--5--5--5--5--5--5--5--5--5--5--3--3--3----|
----------------------------------------------------|----------------------------------------------------|----------------------------------------------------|--3s-5--5--5--5--5--5--5--5--5--5--5--5--3--3--3----|--3s-5--5--5--5--5--5--5--5--5--5--5--5--3--3--3----|--3s-5--5--5--5--5--5--5--5--5--5--5--5--3--3--3----|
----------------------------------------------------|----------------------------------------------------|--8--8--8--8--8--8--8--8--8--8--8--8--8--8--8--8----|--8--8--8--8--8--8--8--8--8--8--8--8--8--8--8--8----|--6--6--6--6--6--6--6--6--6--6--6--6--6--6--6--6----|----------------------------------------------------|
----------------------------------------------------|----------------------------------------------------|--5--5--5--5--5--5--5--5----------------------------|--5--5--5--5--5--5--5--5--3--3--3--3--3--3--3--3----|--3--3--3--3--3--3--3--3--3--3--3--3--3--3--3--3----|--------------------------3--3--3--3--3--3--3--3----|
----------------------------------------------------|----------------------------------------------------|----------------------------------------------------|--5--5--5--5--5--5--5--5--5--5--5--5--5--3--3--3----|--5--5--5--5--5--5--5--5--5--5--5--5--5--3--3--3----|--5--5--5--5--5--5--5--5--5--5--5--5--5--3--3--3----|
----------------------------------------------------|----------------------------------------------------|----------------------------------------------------|--3s-5--5--5--5--5--5--5--5--5--5--5--5--3--3--3----|--3s-5--5--5--5--5--5--5--5--5--5--5--5--3--3--3----|--3s-5--5--5--5--5--5--5--5--5--5--5--5--3--3--3----|
----------------------------------------------------|----------------------------------------------------|--8--8--8--8--8--8--8--8--8--8--8--8--8--8--8--8----|--8--8--8--8--8--8--8--8--8--8--8--8--8--8--8--8----|--6--6--6--6--6--6--6--6--6--6--6--6--6--6--6--6----|----------------------------------------------------|
----------------------------------------------------|----------------------------------------------------|--5--5--5--5--5--5--5--5--5--5--5--5--5--5--5--5----|--5--5--5--5--5--5--5--5--5--5--5--5--5--5--5--5----|--3--3--3--3--3--3--3--3--3--3--3--3--3--3--3--3----|----------------------------------------------------|
----------------------------------------------------|----------------------------------------------------|----------------------------------------------------|--5--5--5--5--5--5--5--5--5--5--5--5--5--3--3--3----|--5--5--5--5--5--5--5--5--5--5--5--5--5--3--3--3----|--5--5--5--5--5--5--5--5--5--5--5--5--5--3--3--3----|
----------------------------------------------------|----------------------------------------------------|----------------------------------------------------|--3s-5--5--5--5--5--5--5--5--5--5--5--5--3--3--3----|--3s-5--5--5--5--5--5--5--5--5--5--5--5--3--3--3----|--3s-5--5--5--5--5--5--5--5--5--5--5--5--3--3--3----|
----------------------------------------------------|----------------------------------------------------|--8--8--8--8--8--8--8--8--8--8--8--8--8--8--8--8----|--8--8--8--8--8--8--8--8--8--8--8--8--8--8--8--8----|--6--6--6--6--6--6--6--6--6--6--6--6--6--6--6--6----|----------------------------------------------------|
----------------------------------------------------|----------------------------------------------------|--5--5--5--5--5--5--5--5----------------------------|--5--5--5--5--5--5--5--5--3--3--3--3--3--3--3--3----|--3--3--3--3--3--3--3--3--3--3--3--3--3--3--3--3----|--------------------------3--3--3--3--3--3--3--3----|
----------------------------------------------------|----------------------------------------------------|----------------------------------------------------|--5--5-----5--5--5--5--5-----5--5--3--3--5--5--5----|--5--5-----5--5--5--5--5-----5--5--3--3--5--5--5----|--5--5-----5--5--5--5--5-----5--5--3--3s-5--5--5----|
----------------------------------------------------|----------------------------------------------------|----------------------------------------------------|--5--5-----5--5--5--5--5-----5--5--3--3--5--5--5----|--5--5-----5--5--5--5--5-----5--5--3--3--5--5--5----|--5--5-----5--5--5--5--5-----5--5--3--3s-5--5--5----|
----------------------------------------------------|----------------------------------------------------|--8--8-----8--8--8--8--8-----8--8--8--8--8--8--8----|--8--8-----8--8--8--8--8-----8--8--8--8--8--8--8----|--6--6-----6--6--6--6--6-----6--6--6--6--6--6--6----|----------------------------------------------------|
----------------------------------------------------|----------------------------------------------------|--5--5-----5--5--5--5--5----------------------------|--5--5-----5--5--5--5--5-----3--3--3--3--3--3--3----|--3--3-----3--3--3--3--3-----3--3--3--3--3--3--3----|-----------------------------3--3--3--3--3--3--3----|
----------------------------------------------------|----------------------------------------------------|----------------------------------------------------|--5--5-----5--5--5--5--5-----5--5--5--5--5--5--5----|--5--5-----5--5--5--5--5-----5--5--5--5--5--5--5----|--5--5-----5--5--5--5--5-----5--5--5--5--5--5--5----|
----------------------------------------------------|----------------------------------------------------|----------------------------------------------------|--5--5-----5--5--5--5--5-----5--5--5--5--5--5--5----|--5--5-----5--5--5--5--5-----5--5--5--5--5--5--5----|--5--5-----5--5--5--5--5-----5--5--5--5--5--5--5----|
----------------------------------------------------||----------------------------------------------------||----------------------------------------------------||--5-------------------------------------------------||--5-------------------------------------------------||--5-------------------------------------------------||
_________________________________________________________________________ ______________________________________________________________ ____________________________________________ Lead (Clean) Drop C (CGCFAD) Legend L - tied note x - dead note h - hammer on/pull off b - bend s - slide ~ - vibrato g - ghost note > - accentuated note t - trill M - palm mute . - staccato P - popping (bass) S - slapping (bass) + - tapping W - wide vibrato < - fade in w - whammy bar = - tremolo picking v - brush up ^ - brush down V - pick stroke up n - pick stroke down
D |----|----|----|----|----|----|----|----|----|----|----|----|----|----|----|A |----|----|----|----|----|----|----|----|----|----|----|----|----|----|----|F |----|----|----|----|----|----|----|----|----|----|----|----|----|----|----|C |----|----|----|----|----|----|----|----|----|----|----|----|----|----|----|G |----|----|----|----|----|----|----|----|----|----|----|----|----|----|----|C |----|----|----|----|----|----|----|----|----|----|----|----|----|----|----|
----|----|----|----|----|----|----|----|----|----|----|----|----|----|----|----|----|----|----|----|----|----|----|----|----|----|----|----|----|----|----|----|----|----|----|----|----|----|----|----|----|----|----|----|----|----|----|----|----|----|----|----|----|----|----|----|----|----|----|----|----|----|----|----|----|----|----|----|----|----|----|----|----|----|----|----|----|----|----|----|----|----|----|----|----|----|----|----|----|----|----|----|----|----|----|----|
----|----|----|----|----|----|----|----|----|----|----|--3----|----|--3----|----|----|----|----|----|----|----|----|----|----|----|--3----|----|--3----|----|----|----|----|----|----|----|----|----|----|----|--0----|----|--0----|----|----|----|----|----|----|----|----|----|----|----|-------|----|-------|----|----|----|----|----|----|----|----|----|----|----|-------|----|-------|----|----|----|----|----|----|----|----|----|----|----|-------|----|-------|
----|--3----|--3-------------|----------------------------|----|--4----|--1--------16s--|--15-------15s13s16-16s15---|----|--0----|--0-------------|----------------------------|----|-------|----------------|----------------------------|----|-------|----------------|----------------------------|----|-------|----------------|----------------------------|
----------------------------|----------------------------|--15-------15s20-20-20s16s--|--15-------15s13s16-16s15---|----------------------------|----------------------------|----------------------------|----------------------------|----------------------------|----------------------------|----------------------------|----------------------------|
----------------------------|----------------------------|--15-------15s10s11-11s13---|--15-------15s13s16-16s15---|----------------------------|----------------------------|----------------------------|----------------------------|----------------------------|----------------------------|----------------------------|----------------------------|
----------------------------|----------------------------|--15-------15s20-20-20s16s--|--15-------15s13s16-16s15---|----------------------------|----------------------------|----------------------------|----------------------------|----------------------------|----------------------------|----------------------------|----------------------------|
----------------------------|----------------------------|--15-------15s10s11-11s13---|--15-------15s13s16-16s15---|----------------------------|----------------------------|----------------------------|----------------------------|----------------------------|----------------------------|----------------------------|----------------------------|
----------------------------|----------------------------|--15-------15s20-20-20s16s--|--15-------15s13s16-16s15---|----------------------------|----------------------------|----------------------------|----------------------------|----------------------------|----------------------------|----------------------------|----------------------------|
----------------------------|----------------------------|--15-------15s10s11-11s13---|--15-------15s13s16-16s15---|----------------------------|----------------------------|----------------------------|----------------------------|----------------------------|----------------------------|----------------------------|----------------------------|
----------------------------|----------------------------|--15-------15s20-20-20s16s--|--15-------15s13s16-16s15---|----------------------------|----------------------------|----------------------------|----------------------------|----------------------------|----------------------------|----------------------------|----------------------------|
----------------------------|----|----|----|----|----|----|----|----|----|----|--15-------15s10s11-11------|----|----|----|----|----|----|----|----|----|----|----------------------------|----|----|----|----|----|----|----|----|----|----|----------------------------|----|----|----|----|----|----|----|----|----|----|----------------------------|----|----|----|----|----|----|----|----|----|----|----------------------------|----|----|----|----|----|----|----|----|----|----|
----|----|----|----|----|----|----|----|----|----|----|----|----|----|----|----|----|----|----|----|----|----|----|----|----|----|----|----|----|----|----|----|----|----|----|----|----|----|----|----|----|----|----|----|----|----|----|----|----|----|----|----|----|----|----|----|----|----|----|----|----|----|----|----|----|----|----|----|----|----|----|----|----|----|----|----|----|----|----|----|----|----|----|----|----|----|----|----|----|----|----|----|----|----|----|----|
----|----|----|----|----||----|----|----|----|----||----|----|----|----|----||----|----|----|----|----||----|----|----|----|----||----|----|----|----|----||
_______________________________ ___________________________ ___________________ Rhythm (Clean) Drop C (CGCFAD) Legend L - tied note x - dead note h - hammer on/pull off b - bend s - slide ~ - vibrato g - ghost note > - accentuated note t - trill M - palm mute . - staccato P - popping (bass) S - slapping (bass) + - tapping W - wide vibrato < - fade in w - whammy bar = - tremolo picking v - brush up ^ - brush down V - pick stroke up n - pick stroke down
D |----|----|----|----|----|----|----|----|----|----|----|----|----|----|----|A |----|----|----|----|----|----|----|----|----|----|----|----|----|----|----|F |----|----|----|----|----|----|----|----|----|----|----|----|----|----|----|C |----|----|----|----|----|----|----|----|----|----|----|----|----|----|----|G |----|----|----|----|----|----|----|----|----|----|----|----|----|----|----|C |----|----|----|----|----|----|----|----|----|----|----|----|----|----|----|
----|----|----|----|----|----|----|----|----|----|----|----|----|----|----|----|----|----|----|----|----|----|----|----|----|----|----|----|----|----|----|----|----|----|----|----|----|----|----|----|----|----|----|----|----|----|----|----|----|----|----|----|----|----|----|----|----|----|----|----|----|----|----|----|----|----|----|----|----|----|----|----|----|----|----|----|----|----|----|----|----|----|----|----|----|----|----|----|----|----|----|----|----|----|----|----|
----|----|----|----|----|----|----|----|----|----|----|--3----|----|--3----|----|----|----|----|----|----|----|----|----|----|----|--3----|----|--3----|----|----|----|----|----|----|----|----|----|----|----|--0----|----|--0----|----|----|----|----|----|----|----|----|----|----|----|-------|----|-------|----|----|----|----|----|----|----|----|----|----|----|-------|----|-------|----|----|----|----|----|----|----|----|----|----|----|-------|----|-------|
----|--3----|--3----|--3----|--3----|--3----|--3----|--3----|--3----|--3----|----|--4----|--1----|--3----|--3----|--3----|--3----|--4----|--1----|--3----|----|--0----|--0----|--0----|--0----|--0----|--0----|--0----|--0----|--0----|----|-------|-------|-------|-------|-------|-------|-------|-------|-------|----|-------|-------|-------|-------|-------|-------|-------|-------|-------|----|-------|-------|-------|-------|-------|-------|-------|-------|-------|
--3----|--3----|--3----|--3----|--3----|--3----|--3----|--3----|--3----|----|--3----|--3----|--3----|--3----|--3----|--4----|--1----|--3----|--3----|----|--0----|--0----|--0----|--0----|--0----|--0----|--0----|--0----|--0----|----|-------|-------|-------|-------|-------|-------|-------|-------|-------|----|-------|-------|-------|-------|-------|-------|-------|-------|-------|----|-------|-------|-------|-------|-------|-------|-------|-------|-------|----|
----|----|----|----|----|----|----|----|----|----|----|----|----|----|----|----|----|----|----|----|----|----|----|----|----|----|----|----|----|----|----|----|----|----|----|----|----|----|----|----|----|----|----|----|----|----|----|----|----|----|----|----|----|----|----|----|----|----|----|----|----|----|----|----|----|----|----|----|----|----|----|----|----|----|----|----|----|----|----|----|----|----|----|----|----|----|----|----|----|----|----|----|----|----|----|----|
----|----|----|----|----|----|----|----|----|----|----|----|----|----||----|----|----|----|----|----|----|----|----|----|----|----|----|----||----|----|----|----|----|----|----|----|----|----|----|----|----|----||----|----|----|----|----|----|----|----|----|----|----|----|----|----||----|----|----|----|----|----|----|----|----|----|----|----|----|----||----|----|----|----|----|----|----|----|----|----|----|----|----|----||
Tap to rate this tab
 
# A B C D E F G H I J K L M N O P Q R S T U V W X Y Z