Su Veneno tab with lyrics by Aventura - Easy chords and tabs for guitar

Aventura – Su Veneno tab

[INTRO]
Note-joseph aguila is amazing for stealing
 this tab and giving to anyone who 
wants it your welcome
                  Am

E||-12-12-12-12s10--10-10s8--8-|-10s12----12-12-12-12s10--10-10s8--8---|B||----------------------------|---------------------------------------|G||----------------------------|---------------------------------------|D||----------------------------|---------------------------------------|A||----------------------------|---------------------------------------|E||----------------------------|---------------------------------------|
Dm
|-12s13----13-13-13-13s12--12-12s10--10--||----------------------------------------||----------------------------------------||----------------------------------------||----------------------------------------||----------------------------------------|
G
|-13----15-15-15-15---13--12------13-||-----------------------------15-----||------------------------------------||------------------------------------||------------------------------------||------------------------------------|
C E7
|13--12h13h12-------12-------------------------------||----------------15---15-13-12-----12---------12-----||-------------------------------14----14---13----14--||----------------------------------------------------||----------------------------------------------------||----------------------------------------------------|
|---17--------------------------------------------||--------17---------------------------------------||-------------17---14--------14-------------------||----------------------14-------14----------------||----------------------------------15-14-13-12----||-------------------------------------------------|
Am Am A7
|-------5----5-------8-----------|-----5------------------------||-----------------5--------------|--------8--5----------5-------||--------------------------------|--------------6---6-7---6---6-||---------7----7-----------------|----------------7---------7---||--------------------------------|------------------------------||--------------------------------|------------------------------|
Dm
|-----------------------10-9-10-12-|-13------13---13----------||----------------5-6-10------------|--------------------------||-7--------4-6-7-------------------|--------------------------||--------7-------------------------|--------------------------||----------------------------------|--------------------------||----------------------------------|--------------------------|\ G
|--------15--------------------------------------||-------------18---15-18-15----------------------||---------------------------16---14-16-14--------||-----------------------------------------17-----||------------------------------------------------||------------------------------------------------|
G7 C E7
|-----15--------------------------------------|---------------7----7---7-||----------18---15-18-15----------------------|------------------9---9---||------------------------16---14-16-14--------|--------------------------||--------------------------------------17-----|--------------------------||---------------------------------------------|--------------------------||---------------------------------------------|--------------------------|
Am F
|------------8-------8-----8----8-|-12-------------------||-10-------------10-----10---10---|----------------------||---------------------------------|----------------------||---------------------------------|----------------------||---------------------------------|----------------------||---------------------------------|----------------------|
G C E7
|--------------------------|---------------------------||--------------------------|---------8-----------9-----||--------------------------|---------9-----------7-----||--------------------------|-----10-----------9--------||--------------------------|---------------------------||--------------------------|---------------------------|
Am F
|------5---5---7---8---7---5-----|----------------5--------||--------5---5---5---5---5-------|-------------------6-----||----5---------------------------|----------5--------------||--------------------------------|-------7-----7-----------||--------------------------------|-------------------------||--------------------------------|-------------------------|
G C E7
|-----7-----10-----15-------|-------------------||-----8-----12-----15-------|-------------------||---------------------------|-------------------||---------------------------|-------------------||---------------------------|-------------------||---------------------------|-------------------
Am F
|------5---5---7---8---7---5-----|-----------------------------------||--------5---5---5---5---5-------|-------------------------------6---||--------------------------------|-------------------------------5---||----7---------------------------|-----------------------------------||--------------------------------|-----------------------------------||--------------------------------|-----------------------------------|
G
|---------------------------|-----7---------------------||--------------6------------|--------8------------------||--------------5------------|---------------------------||---------------------------|---------------------------||---------------------------|---------------------------|
G G7 Am [ pick fast as hell!!! ]|-------------10-10-10----12-12-12----13-13-||-------------12-12-12----13-13-13----15-15-||-------------------------------------------||-------------------------------------------||-------------------------------------------||-------------------------------------------|
F G C E7
|-13-------------------|--7------------------|----------------4---||-15-------------------|-----8---------------|----------------3---||----------------------|---------------------|----------------4---||----------------------|---------------------|----------------0---||----------------------|---------------------|----------------2---||----------------------|---------------------|--------------------|
Am F
|-----5--------8-----5-----|-----5----5--------5----5-------||--------5--------------5--|---------6--6----------6--6-----||-----------5-----5--------|--------------5-----------------||--------------------------|--------------------------------||--------------------------|--------------------------------||--------------------------|--------------------------------|
G C E7
|-----7--------7--------7---7------|-----8----8--------7----7-------||----------8-----8----------8------|--------8---8---------9---9-----||--------7---7-----7--------7------|--------------9-------------7---||----------------------------------|--------------------------------||----------------------------------|--------------------------------||----------------------------------|--------------------------------|
Am Am - G - F
|-----5--8--5--8----------|--5-------5-------5-------5-----||-------------------------|----6---6---6---6---6---6-------||-------------------------|------5-------5-------5---------||-------------------------|--------------------------------||-------------------------|--------------------------------||-------------------------|--------------------------------|
G C E7
|--7-------7-------7-------7-----|--8-------8-----7-------7------||----8---8---8---8---8---8-------|----8---8---------9---9--------||------7-------7-------7---------|------9-------------7----------||--------------------------------|-------------------------------||--------------------------------|-------------------------------||--------------------------------|-------------------------------|
Am F
|--8---------8---------8---------8------|--5-------5-------5-------5-----||----10---10---10---10---10---10--------|----6---6---6---6---6---6-------||-------9---------9---------9-----------|------5-------5-------5---------||---------------------------------------|--------------------------------||---------------------------------------|--------------------------------||---------------------------------------|--------------------------------|
G C E7 Am
|--7---------7-----7-----7-----|--8-----8------7-----7-----|--8---||------8--------8-----8--------|-----8-----8------9-----9--|--10--||------7--------7-----7--------|-----9------------9--------|------||------------------------------|---------------------------|------||------------------------------|---------------------------|------||------------------------------|---------------------------|------|
fyfififif: Am
e||-12-12-12-12s10--10-10s8--8-|-10s12----12-12-12-12s10--10-10s8--8-|B||----------------------------|-------------------------------------|G||----------------------------|-------------------------------------|D||----------------------------|-------------------------------------|A||----------------------------|-------------------------------------|E||----------------------------|-------------------------------------|
Dm G
|12s13----13-13-13-13s12--12-12s10--10-|-13s15---15-15-15-15--13--12----13||--------------------------------------|------------------------------15--||--------------------------------------|----------------------------------||--------------------------------------|----------------------------------||--------------------------------------|----------------------------------||--------------------------------------|----------------------------------|
C E7 Am
|-13--12h13h12----12-----------------------|----12-12-12-12s10--10-10s8--8||--------------15---15--13--12------12-----|------------------------------||-------------------------------13------14-|14----------------------------||------------------------------------------|------------------------------||------------------------------------------|------------------------------||------------------------------------------|------------------------------|
[repeat some figure again] [ electric guitar business]
PMe||---17---17--13-15---12-12s13----------------|B||--17----17--13-15---12-12s13---12-12s13-----|G||-17----------------------------12-12s14-----|
A# C
|-----------------------------------|-------------------------------------||-----------------------------------|-------------------------------------||-10h12--12--10---9---9h10--9-----9-|-9h10--10---9------------------------||-----------------------------------|----------------12--10-12-10---10-10-||-----------------------------------|-------------------------------------||-----------------------------------|-------------------------------------|
A# C
|----------------------------------|-------------------------------||----------------------------------|-------------------------------||-10h12--12---10---9---9h10-------9|-9h10--10---9------------------||----------------------------------|----------------12---10-12-10--||----------------------------------|-------------------------------||----------------------------------|-------------------------------|
A# C
|--13h15--15---13s12-12---13---13---13--------12-|-12h13-13----------||------------------------------------------------|-----------15------||------------------------------------------------|---------------14--||------------------------------------------------|-------------------||------------------------------------------------|-------------------||------------------------------------------------|-------------------|
[ fufifififif ] Am Dm E7
|-15-15-15-|-15-13-12-13-12----12----------------------------||----------|----------------15----15-13-15-13-12-13-12-------||----------|-------------------------------------------14-13-||----------|-------------------------------------------------||----------|-------------------------------------------------||----------|-------------------------------------------------|
Am Am A7
|----------------12-------------|-0----0--||--------13----------13---------|-1----2--||-14---------14----------14-----|-2----0--||-----14---------------------14-|-2----2--||-------------------------------|-0----0--||-------------------------------|-0----0--|
F G
|--5-------------------------|--7--------------------||--6-------------------------|--8--------------------||--5-------------------------|--7--------------------||----------------------------|-----------------------||----------------------------|-----------------------||----------------------------|-----------------------|
C E7 Am
|--8---------7--------|---8---10---12-----------||--8---------9--------|--10---10---13-----------||--9---------7--------|---9---12---14-----------||---------------------|-------------------------||---------------------|-------------------------||---------------------|-------------------------|
F G
|--5-------------------------|-7--------------------||--6-------------------------|-8--------------------||--5-------------------------|-7--------------------||----------------------------|----------------------||----------------------------|----------------------||----------------------------|----------------------| C E7 Am
|--8-----------7-------|-------------------------||--8-----------9-------|--13---------13----------||--9-----------7-------|--14---------14----------||----------------------|-------14/15-------------||----------------------|-------------------------||----------------------|-------------------------|
F
|---------5-------5-----5--|---------------------------||-------6---6---6---6------|---------------------------||-------------5-------5----|---------------------------||--------------------------|---------------------------||--------------------------|---------------------------||--------------------------|---------------------------|
G G7 Am F
|-------------------------|------------|---------5-------5-----5-----||-------------------------|------------|-------6---6---6---6---------||-------------------------|------------|-------------5-------5-------||-------------------------|------------|-----------------------------||-------------------------|------------|-----------------------------||-------------------------|------------|-----------------------------|
G C E7
|-----7--------7-----7-----|--------------7----7-------||--------8--------8--------|-----------------9---9-----||-----------7--------------|-----------------------7---||--------------------------|---------------------------||--------------------------|---------------------------||--------------------------|---------------------------|
Am F
|---------8---10-----12-------|---------5-------5-----------||--------10---12-----13-------|-----------6---6---6---6-----||-----9-----------------------|-------------5-------5-------||-----------------------------|-----------------------------||-----------------------------|-----------------------------||-----------------------------|-----------------------------|
G C E7
|----7-------7-------7------------|-----8----------7-------||------8---8---8---8---8---8------|--------8----------9----||--------7-------7-------7--------|------------------------||---------------------------------|------------------------||---------------------------------|------------------------||---------------------------------|------------------------|
Am Am - G - F
|---8-----10-----12----|----5----5---------5----5--------||--10-----12-----13----|-------6---6----------6---6------||----------------------|-------------5--------------5----||----------------------|---------------------------------||----------------------|---------------------------------||----------------------|---------------------------------|
G C E7
|-----7----7---------7--7-----|-----0-1-2-3s2-(0)-------------------||--------8---8----------8-----|-------------------------------------||--------------7--------------|-------------------0-2p0-2p0-2p0-0---||-----------------------------|-----------------------------------3-||-----------------------------|-------------------------------------||-----------------------------|-------------------------------------|
Am F
|--------------------|-------------------5-----||--------------------|----------6-----------6--||--------------------|-------5--------5--------||-2------------------|-------------------------||--------------------|-------------------------||--------------------|-------------------------|
G C E7
|-----7-----7--10--7--------|--8----------8----7-------7----||--------8------------8-----|-----8---(8)---------9---------||---------------------------|-------------------------------||---------------------------|-------------------------------||---------------------------|-------------------------------||---------------------------|-------------------------------|
Am
|--5--8--8--12--8----------||--------------------------||--------------------------||--------------------------||--------------------------||--------------------------|
acoustic guitar solo super amazing stuff Note: you need two guitars for this GUITAR 1:
Am A7 Dm-------|------------------------------12----13-12--15--15|15-----------|------------12----13-12-15-13----15--------------|-------------|-----14-13----14---------------------------------|-------14-13-|15-14--------------------------------------------|-------------|-------------------------------------------------|-------------|-------------------------------------------------|------
GUITAR 2:
Am A7 Dm-------|-------------------------------------------------|-------------|-------------------------------------------------|-------------|-------------------------------------------------|-------------|-------------------------------------------14-13-|15-14--------|-------------------------------------------------|-------------|-------------------------------------------------|------
G--------------------------------|------------17-16-19-17-20-19-22--------12----13-12-15-13-17-15-|18----18-17----------------------14-13----14--------------------|----------------------------------------------------------------|----------------------------------------------------------------|----------------------------------------------------------------|--------------------------------
C E7 Am--19-22----19-22-20-19-|20----20--19-------19----|----------------|-----------------------|---------------21------22|22--------------|-----------------------|-------------------------|-------21h20h21-|-----------------------|-------------------------|----------------|-----------------------|-------------------------|----------------|-----------------------|-------------------------|----------------|
Dm G7
|--5----5----5----5----5---|--7-----7-----7-----7-----7---||----6----6----6----6------|----8-----8-----8-----8-------||------7----7----7----7----|------10----10----10----10----||--------------------------|------------------------------||--------------------------|------------------------------||--------------------------|------------------------------|
C E7 Am
|--8-----8-------7-----7----|--5--||----8-----8-------9-----9--|--5--||------9--------------9-----|--5--||---------------------------|-----||---------------------------|-----||---------------------------|-----|
F G
|-----5-------5------------------|----------7-----7--10-----| |---------5s6---6-----6----------|-------8-----8------------| |-----------------(5)------------|--------------------------| |--------------------------------|--------------------------| |--------------------------------|--------------------------| |--------------------------------|--------------------------|
C E7 Am
|-------------7------7------8|--------10--------12----------------||----------------9--------10-|10----12--12----13--13--------------||----------------------------|------------------------------------||----------------------------|------------------------------------||----------------------------|------------------------------------||----------------------------|------------------------------------|
F G
|--5---------------------|---7---10---15--------||--6---------------------|---8---12---15--------||--5---------------------|----------------------||------------------------|----------------------||------------------------|----------------------||------------------------|----------------------|
C E7 Am Am - G
|------------7----7---7-|----------8-----8---------||---------------9---9---|-10-----------10-10-------||-----------------------|--------------------------||-----------------------|--------------------------||-----------------------|--------------------------||-----------------------|--------------------------| F G
|--------------5-----------|--------------10----------||--------6-----------6-----|--------8-----------------||-----5-----5-----5-----5--|-----7-----7--------------||--------------------------|--------------------------||--------------------------|--------------------------||--------------------------|--------------------------|
C E7 Am
|---------------------------|-----------5-----------||---------8-----------9-----|-----5-----------------||------------9-----------7--|--------5--------------||-----10-----------9--------|-----------------------||---------------------------|--0--------------------||---------------------------|-----------------------|
[ OUTRO ] F G
---------|----5-----5------------|--7------7----------|---------|------6-----6----------|-----8------8-------|---------|--------5--------------|-------7------------|---------|-----------------------|--------------------|---------|-----------------------|--------------------|---------|-----------------------|--------------------|
C7M
|---15-12---------------------------------|-----------------|||---------13------------------------------|---------------8-|||------------14----12-14----12-14-----12--|---------------9-|||---------------14-------14-------14------|--------------10-|||-----------------------------------------|--------------10-|||-----------------------------------------|-----------------||
Please rate this tab:
x1.0