Bella Morte - On The Edge tab



			"On The Edge"

			  Bella Morte
		   Bleed the Grey Skies Black

Tabbed by: John Moores


Tuning: Standard (EADGBe)

Legend:  * = Palm Mute


Intro/Chorus
0:11

|--------------------------------------------------||--------------------------------------------------||----5---------------------------------------------||----5------------6------------8-------------------| x4|----3------------6------------8-------------------||-----------------4------------6-------------------|
0:33 _|--------------------------------------------------| ||--------------------------------------------------| ||--------------------------------------------------| ||--------------------------------------------------| ||---3---1---3----1-------1-------1-----------------| ||--------------------4------4--------4--3---1--3---| |
|
|}} x2|--------------------------------------------------| ||--------------------------------------------------| ||--------------------------------------------------| ||--------------------------------------------------| ||---3---1---3----1---------------------------------| ||--------------------4---3---4\\-------------------| | _|
Verse 1 0:45 (Bass continues to play above riff) 0:56 (Pretty much an octave of what was played earlier)
|--------------------------------------------------| |--------------------------------------------------| |---5---3---5----3---6---3--6----3-----------------| |------------------------------------6--5---3--5---| |--------------------------------------------------| |--------------------------------------------------|
|--------------------------------------------------| |--------------------------------------------------| |---5---3---5----3---------------------------------| |--------------------6---5---6\\-------------------| |--------------------------------------------------| |--------------------------------------------------|
Repeat, but with different ending:
|--------------------------------------------------| |--------------------------------------------------| |---5---3---5----3-----------------x-x-x-x---------| |--------------------6---5---6\\---x-x-x-x---------| |----------------------------------x-x-x-x---------| |----------------------------------x-x-x-x---------| ^ This one goes by really fast, hard to hear
Chorus 1:08
|--------------------------------------------------||--------------------------------------------------||----5---------------------------------------------||----5------------6------------8-------------------| x4|----3------------6------------8-------------------||-----------------4------------6-------------------|
Verse 2 1:30 (Again, bass plays riff) Scratch/Mute the strings during this verse, just listen for the timing. 1:41 (pick scratch down - this riff has an effect on it. Add a perfect 4th to what is played)
|--------------------------------------------------| ||--------------------------------------------------| ||--------------------------------------------------| ||-\\-----------------------------------------------| ||-\\--3---1---3----1-----1-------1-----------------| ||--------------------4------4--------4--3---1--3---| |
|
|}} x2|--------------------------------------------------| ||--------------------------------------------------| ||--------------------------------------------------| ||--------------------------------------------------| ||---3---1---3----1---------------------------------| ||--------------------4---3---4\\-------------------| | _|
Repeat, but with different ending:
|--------------------------------------------------| |--------------------------------------------------| |----------------------------------x-x-x-x---------| |----------------------------------x-x-x-x---------| |---3---1---3----1-----------------x-x-x-x---------| |--------------------4---3---4\\---x-x-x-x---------| ^ Again this one flies by.
Chorus 1:53
|--------------------------------------------------||--------------------------------------------------||----5---------------------------------------------||----5------------6------------8-------------------| x4|----3------------6------------8-------------------||-----------------4------------6-------------------|
Bridge 2:15
2:26|--------------------------------------------------||--------------------------------------------------||--------------------------------------------------||---/3--/6~~------5--5/6\5------5--5/6\5-----------| x4|-------------3-3-33-3/4\3--3-3-33-3/4\3-----------| (Minus the lead in |--------------------------------------------------| notes) * * * * * *
Sorry, but this part is really hard to put into tablature. Just listen. Bounces back and forth between the C5 and C#5 Chorus 2:52
|--------------------------------------------------||--------------------------------------------------||----5---------------------------------------------||----5------------6------------8-------------------| x8|----3------------6------------8-------------------||-----------------4------------6-------------------|
Tap to rate this tab
 
# A B C D E F G H I J K L M N O P Q R S T U V W X Y Z