Ben Marwood - Tell Avril Lavigne I Never Wanted To Be Her Stupid Boyfriend Anyway tab

This song's not too complex but it's in a few parts.

Verse riff, fingerpicked but it sounds fine regardless.

----------------|--4--4----4--4--|--5--3h5--3--3--|--5--5----5--5--|--3--3----6--5--|----------------|
Well there's wrongs to re-write Sorrows to drown and I know that it's weird but I drink her scent down
---------------|--9---4--8-----|--10--3--8--7--|--10--5--8--8--|--8---3--6--8--|------------6--|
And I long to be held in her highest regard
--------------|--------8-----|--5--5--8--7--|--6--6--8--8--|--6--6--6--8--|--4--4-----6--|
with not so much a kiss more a meeting of lips
-------4----5----5----3-------
in the dark Riff -
------------------------------------------------|------------4p3---------------------------------|-----3h5p3-------5p3----------3h5p3----------3--|-----3h5p3------------5p3-----3h5p3-----3h5-----|--3------------------------6---------5----------|------------------------------------------------| x2
verse
----------------|--4--4----4--4--|--5--3h5--3--3--|--5--5----5--5--|--3--3----6--5--|----------------|
And well she's got this boy who has cut to the quick but he's had his chances that he didn't make stick
---------------|--9---4--8-----|--10--3--8--7--|--10--5--8--8--|--8---3--6--8--|------------6--|
and he's cold and he's callous and clearly a prick
--------------|--------8-----|--5--5--8--7--|--6--6--8--8--|--6--6--6--8--|--4--4-----6--|
well I know i'm guilty but this girls got me sick
-------4----5----5----3-------
in the head Riff -
------------------------------------------------|------------4p3---------------------------------|-----3h5p3-------5p3----------3h5p3----------3--|-----3h5p3------------5p3-----3h5p3-----3h5-----|--3------------------------6---------5----------|------------------------------------------------| x2
Bridge
--------------|--------8-----|--5--5--8--7--|--6--6--8--8--|--6--6--6--8--|--4--4-----6--| x2
And while it's so ill advised I don't see why I should quit when we listen to deus and this is the kit
---------------|--9---4--8-----|--10--3--8--7--|--10--5--8--8--|--8---3--6--8--|------------6--|
and the touch of her skins what my days are about
--------------|--------8-----|--5--5--8--7--|--6--6--8--8--|--6--6--6--8--|--4--4-----6--|
and i'd make her mine if she ever put out
---------------|--9---4--8-----|--10--3--8--7--|--10--5--8--8--|--8---3--6--8--|------------6--| x3
this fear in my head that continues to roll that i'm so fucking scared as i'm not in control still I long to be held in her highest regards
--------------|--------8-----|--5--5--8--7--|--6--6--8--8--|--6--6--6--8--|--4--4-----6--|
with not so much a kiss more a meeting of lips
-------4----5----5----3-------
in the dark
Tap to rate this tab
 
# A B C D E F G H I J K L M N O P Q R S T U V W X Y Z