Bettencourt Nuno – Schizophonic Album tab

#


From al766074@mail.mty.itesm.mx Sun Apr 27 11:08:36 1997
Date: Fri, 25 Apr 1997 09:47:58 -0500 (CDT)
From: Alan Estrada Adler 
To: Guitar 
Subject: Artist: Nuno Bettencourt TAB: Schizophonic Album

Nuno Bettencourt - Schizophonic
------------------------------------------------------------------
by Bernard Rodrigue
Send all comments and corrections to
rodrb00@dmi.usherb.ca
http://callisto.si.usherb.ca/~95466560
http://www.geocities.com/SoHo/5996
Last updated april 23, 1997
------------------------------------------------------------------
||||||||||||||||||||||||||||||||||||||||||||||||||||||||||||||||||

Nuno Bettencourt - Confrontation
------------------------------------------------------------------
* TUNE DOWN HALF STEP *

|--------|--------|--------|--------|
|Em      |Am      |G       |D       |
|C       |C       |*Em             G

*Note: Em|-----0----||-----0----||-----0----||-----2----||-----2----||-3-2-0----|
-------------------------- Bridge |--------|--------|--------|--------| Am Bm7 C Bm7 |--------|--------|--------|--------| Em D C C SOLO
|--------------------------------------------|--------------------------------------------|--------------------------------------------|-9-10-12-10-9-9-9-9-9-9-9-10-9-9-9-10-9-9-9-|--------------------------------------------|--------------------------------------------
|--------------------------------------------|--------------------------------------------|--------------------------------------------|-9-10-12-10-9-------------------------------|--------------10-10-10-12-10-10-10-12-10----|--------------------------------------------
|||||||||||||||||||||||||||||||||||||||||||||||||||||||||||||||||| Nuno Bettencourt - Gravity ------------------------------------------------------------------ * TUNE DOWN HALF STEP * Riff #1
|-------|---------------------------|---------------------------||-------|---------------------------|---------------------------||-------|---------------------------|---------------------------||-------|---------------------------|---------------------------||-0-0-0-|-0-0-3-0-0-5-0-5^6^5-3-0-0-|-0-0-3-0-0-5-0-5^6^5-3-0-0-||-------|---------------------------|---------------------------|
|---------------------------|---------------------------||---------------------------|---------------------------||---------------------------|---------------------------||---------------------------|---------------------------||-0-0-3-0-0-5-0-5^6^5-3-0-0-|-0-0-3-0-0-5-0-5^6---------||---------------------------|---------------------------|
Riff #2 POWER CHORDS ----------------------------------------------- A5 E5 C5 E5 D5 E5 F5 C5 G5 Riff #3 C G A Gravity... SOLO
|--------------------------|--7^-7--5--7^---5--7--7^--|--------------7-----------.....|--------------------------|--------------------------|--------------------------
|||||||||||||||||||||||||||||||||||||||||||||||||||||||||||||||||| Nuno Bettencourt - Crave ------------------------------------------------------------------ * TUNE DOWN HALF STEP * |--------|--------|--------|--------| F Dm Am A# F Dm Am A# F Dm Am A# F Am A# A# ------------------------------------ Bridge |--------|--------|--------|--------| F Am Dm A# F G# G F# F Am Dm A# F Am Dm A# ------------------------------------ Interlude |--------|--------|--------|--------| A# F A# F |||||||||||||||||||||||||||||||||||||||||||||||||||||||||||||||||| Nuno Bettencourt - Swollen Princess ------------------------------------------------------------------ * TUNE DOWN HALF STEP * (-RIFF #1-)
T |-----------------------|-----------------------| |-----------------------|-----------------------|A |-----------------------|-----------------------| |-----------------------|-----------------------|B |--------------0--------|--------------0--------| |--0--2--2--2-----2--2--|--0--2--2--2-----2--0--| *very fast
|-----------------------|--------------------------||-----------------------|--------------------------||-----------------------|--------------------------||-----------------------|--------------------2-2-2-||--------------0-----3^-|--------------0-----------||--0--2--2--2-----2-----|--0--2--2--2-----2--------|
(-Riff #2-)
|---------------------||---------------------||---------------------||---------------------||----0-----2--2--2--4-||-2-----2-------------|
(-RIFF #3-)
|-----------------|-----------------||-----------------|-----------------||-6-6-6-6-6-6-6-6-|-6-6-6-6-6-6-6-6-||-6-6-6-6-6-6-6-6-|-6-6-6-6-6-6-6-6-||-4-4-4-4-4-4-4-4-|-3-3-3-3-3-3-3-3-||-----------------|-----------------|
|-----------------|-----------------||-----------------|-----------------||-6-6-6-6-6-6-6-6-|-6-6-6-6-6-6-6-6-||-6-6-6-6-6-6-6-6-|-6-6-6-6-6-6-6-6-||-----------------|-----------------||-6-6-6-6-6-6-6-6-|-5-5-5-5-7-7-7-7-| NOT SURE
(-Riff #4-) F# C# Dm# B F# D F# F# C# Dm# B (-Riff #5-) G5# G5 (-Riff #6-)
|---------------------------------||---------------------------------||---------------------------------||---------------------------------||-4--4--4--4--4--4--4--4--4--4--4-||-2--2--0--2--0--2--2--0--2--0--2-|
|||||||||||||||||||||||||||||||||||||||||||||||||||||||||||||||||| Nuno Bettencourt - What you want ------------------------------------------------------------------ * TUNE DOWN HALF STEP *
|-------------------------------2----3--------|-2--x--x--2--x--x--2--x--x--x--3----3--------|-2--x--x--2--x--x--2--x--x--x--2----0--------|-2--x--x--2--x--x--2--x--x--x--0----0--------|-0--x--x--0--x--x--0--x--x--x-------2--------|------------------------------------3--------
--------------------- Bridge Unknow chord: (Gb*) ----------- | | | | | | o | | o | | | | | | o | | | | | | | | | | | | | |--------|--------|--------|--------| C G Am F G Dm F F Gb* G D
SOLO|-------------------------|----------------------||-------------------------|----------------------||-------------------------|----------------------||-5-5---5-5---5-5-7-5-----|-5-5---5-5---5-5-7-5--||-----7-----7---------7---|-----7-----7----------||-----------------------5-|----------------------|
...............
(with slide or not)|-------------------------------||-7-\-2-/-7-\-2-2-2-/-7-\-2-/-9-||-7-\-2-/-7-\-2-2-2-/-7-\-2-/-9-||-7-\-2-/-7-\-2-2-2-/-7-\-2-/-9-||-------------------------------||-------------------------------|
|||||||||||||||||||||||||||||||||||||||||||||||||||||||||||||||||| Nuno Bettencourt - 2 Weeks in Dizkneelande ------------------------------------------------------------------ * TUNE DOWN HALF STEP * Riff #1
|--------------------------------------------------------------||--------------------------------------------------------------||-9-9-9-9-9----------------------------------------------------||-9-9-9-9-9-9-8-7-7-7-7-7-8-9-10-10-10-10-10-9-8-7-7-7-7-7-8-9-||-7-7-7-7-7-9-8-7-7-7-7-7-8-9-10-10-10-10-10-9-8-7-7-7-7-7-8-9-||-----------7-6-5-5-5-5-5-6-7-8--8--8--8--8--7-6-5-5-5-5-5-6-7-|
Riff #2
|------------------------------------------------------------||------------------------------------------------------------||-9-9-9-9-9------------------------------------3--3-3--------||-9-9-9-9-9-9-8-7-7-7-7-7-8-9-10--10-10-5--5-5-3--3-3-3--3-3-||-7-7-7-7-7-9-8-7-7-7-7-7-8-9-10--10-10-5--5-5-1--1-1-3--3-3-||-----------7-6-5-5-5-5-5-6-7-8---8--8--3--3-3--------1--1-1-|
Riff #3
|----------------------------|----------------------------|----------------------------|----------------------------|-2-2-2-2-2-2-2-2-2-2-2-2-2-2...|-0-0-0-0-0-0-0-0-0-0-0-0-0-0...
Riff #4
|---------------------||---------------------||---------------------||---------------------||-5/7-7-7-----5/7-7-7-||-3/5-5-5-0-0-3/5-5-5-|
Riff#5
|---------------------------------||---------------------------------||---------------------------------||---9\8---7\6---5\4---3\1---------||---7\6---5\4---3\2---1\0---5-4-2-||-0-----0-----0-----0-----0-3-2-0-|
|||||||||||||||||||||||||||||||||||||||||||||||||||||||||||||||||| Nuno Bettencourt - Pursuit of Happiness ------------------------------------------------------------------ *** TUNE DOWN WHOLE STEP *** #1-C #2-G #3-D# #4-Bb #5-F #6-C THIS IS NOT CORRECT, I KNOW
|------------------------------|------------------------------|-------0-------0---2-0-----0--|-----0-------0-----------0----|-0-2-------2-----------2------|---------0---------2-3--------
|-------------------------3-0-----------------------|-------------------3-0--------0H1--------------------|-------0-------0------------------2-0----------------|-----0-------0-------------------------------------|-0-2-------2-------------2-3------------/5----------|---------0---------2-3-----------------2/3-----------
|||||||||||||||||||||||||||||||||||||||||||||||||||||||||||||||||| Nuno Bettencourt - Karmalaa ------------------------------------------------------------------ * TUNE DOWN HALF STEP *
|---------------|--------------||---------------|--------------||---------------|--------------||-6/7-7\6/7-7-6-|-6/7-7\6/7\6--||-4/5-5\4/5-5-4-|-4/5-5\4/5\4--||---------------|--------------|
*The rest is too complex |||||||||||||||||||||||||||||||||||||||||||||||||||||||||||||||||| Nuno Bettencourt - Note on The Screen Door ------------------------------------------------------------------ * TUNE DOWN HALF STEP *
With Wah-Wah|----------------------------------------------------------------||----------------------------------------------------------------||----------------11----------11----------------11-11-13-15-11----||-13-11----11-13----13-11-------13-11----11-13----------------13-||-------13----------------13----------13-------------------------||----------------------------------------------------------------|Not SURE
|--------|--------|--------|--------| Gb C# Gb B |--------|--------|--------|--------| Gb E B D |||||||||||||||||||||||||||||||||||||||||||||||||||||||||||||||||| Nuno Bettencourt - I Wonder ------------------------------------------------------------------ * TUNE DOWN HALF STEP * ---------- INTRO (two guitars) play a G all the time while :
|-3--3--3--3--3-/-12-12-12-12-12-\-7-7-7-7-7-/-8-8-8-\-2-2--------|-----------------------------------------------------------------|-----------------------------------------------------------------|-----------------------------------------------------------------|-----------------------------------------------------------------|-----------------------------------------------------------------
----------------- |--------|--------|--------|--------| A Bm G Gb A Bm G Gb Bm A D G Gb G Gb ------------- Bridge |--------|--------|--------|--------| B B G A |||||||||||||||||||||||||||||||||||||||||||||||||||||||||||||||||| Nuno Bettencourt - Got to Have You ------------------------------------------------------------------ * TUNE DOWN HALF STEP *
|---------------------------------||---------------------------------||---------------------------------||-2-2-2-2-2-2-2-2-2-2-2-2-2-2-2-2-||-2-2-2-2-2-2-2-2-2-2-2-2-2-4-4-4-||-0-2-2-0-4-4-0-5-5-5-5-5---------|not sure
|---------------------------------||-6-6-6-6-6-6-6-6-6-6-6-6-6-7-7-6-||-6-6-6-6-6-6-6-6-6-6-6-6-6-6-6-6-||-6-6-6-6-6-6-6-6-6-6-6-6-6-6-6-6-||-4-4-4-4-4-4-4-0-0-0-0-0-0-0-0-0-||---------------------------------|
|-----------------|-6^7^6-4---4-----|---------6---6-6->>|-------------6-6->>|-------------4-4->>|-----------------bend
|--------|--------|--------|--------| Gb Gb A# Bm E |||||||||||||||||||||||||||||||||||||||||||||||||||||||||||||||||| Nuno Bettencourt - Severed ------------------------------------------------------------------ * TUNE DOWN HALF STEP * |--------|--------|--------|--------| G# B G# Gb
Please rate this tab:
x1.0