Bigwig - Still tab

Ok, this intro riff is rough, it should be pretty spot on though just I can't
follow it perfectly so this is what the tab comes out looking like.
Oh yeah this part is just guitar 2's part (lead - Tom)

|-----------------------------------|-5-----6-----8---6-8-6---5-6-------|---5-5---5-5---5-------5-----7-7-7-|-----------------------------------|-----------------------------------|-----------------------------------
|--------------------- |--------------------- |-5---------5-5------- |-5---5-5---5-5---5-5- |-3---5-5---3-3---5-5- |-----3-3---------3-3-
|-------------------------------------------------- |-------------------------------------------------- |-----------------------5--4--2--2-2--------------- |-3--3-3--3--5--5-5--5--5--4--2--2-2--3--3-3--3--5- |-3--3-3--3--5--5-5--5--3--2--0--0-0--3--3-3--3--5- |-1--1-1--1--3--3-3--3----------------1--1-1--1--3-
|-----------------------------------|-5-----6-----8---6-8-6---5-6-------|---5-5---5-5---5-------5-----7-7-7-|-----------------------------------|-----------------------------------|-----------------------------------
|-------------|-1-------6/5-|-------------|-------------|-------------|-------------
|-------------------------------------------------- |-------------------------------------------------- |-----------------------5--4--2--2-2--------------- |-3--3-3--3--5--5-5--5--5--4--2--2-2--3--3-3--3--5- |-3--3-3--3--5--5-5--5--3--2--0--0-0--3--3-3--3--5- |-1--1-1--1--3--3-3--3----------------1--1-1--1--3-
|--------------------------------------------------------- |--------------------------------------------------------- |-12-12-12-12-12-12--10-10-10-10-10-10--9-9-9-9-9-9--7--5- |-12-12-12-12-12-12--10-10-10-10-10-10--9-9-9-9-9-9--7--5- |-10-10-10-10-10-10--8--8--8--8--8--8---7-7-7-7-7-7--5--3- |---------------------------------------------------------
|---------------------------------------------------------------------------- |---------------------------------------------------------------------------- |-12-12-12-12-12-12--10-10-10-10-10-10--9-9-9-9-9-9--7--4/5--7--9--7--4--4/5- |-12-12-12-12-12-12--10-10-10-10-10-10--9-9-9-9-9-9--7--4/5--7--9--7--4--4/5- |-10-10-10-10-10-10--8--8--8--8--8--8---7-7-7-7-7-7--5--2/3--5--7--5--2--2/3- |----------------------------------------------------------------------------
|-----------|-----------|-12--10--9-|-x---x---x-|-10--8---7-|-----------
|-----------------------------------|-5-----6-----8---6-8-6---5-6-------|---5-5---5-5---5-------5-----7-7-7-|-----------------------------------|-----------------------------------|-----------------------------------
Vibrato this soloy type thing|---------------------------------|-8-6-5-3-8-6-5-3-1-3-5-6-5-3-5-3-|---------------------------------|---------------------------------|---------------------------------|---------------------------------
|-------------------------------------------------- |-------------------------------------------------- |-----------------------5--4--2--2-2--------------- |-3--3-3--3--5--5-5--5--5--4--2--2-2--3--3-3--3--5- |-3--3-3--3--5--5-5--5--3--2--0--0-0--3--3-3--3--5- |-1--1-1--1--3--3-3--3----------------1--1-1--1--3-
Ok, hopefully that's in order as well to make it a bit easier when you're playing along.
Tap to rate this tab
 
# A B C D E F G H I J K L M N O P Q R S T U V W X Y Z