Bill Doggett - Honky Tonk tab

#----------------------------------PLEASE NOTE--------------------------------#
#This file is the author's own work and represents their interpretation of the#
#song. You may only use this file for private study, scholarship, or research.#
#-----------------------------------------------------------------------------#


From: "Kevin Gardner" 
Subject: d/doggett_bill/honky_tonk.tab
Date: Thu, 23 Apr 1998 16:53:21 PDT

this song has no words
"Honky Tonk (part 1)"
as recorded by Bill Doggett and His Combo

transcribed by Kevin Gardner
               transtrem@hotmail.com

 Capo on first fret

If played without a capo all notes will sound  1/2 step flat
when compared to the recording.

B=bend up 1/2 step
/=slide

verse#1E------------------|------------------|------------------|------------------|---2---4----2---4-|-0---0----0---0---|
A-----------------|-----------------|-----------------|---2---4---5---4-|-0---0---0---0---|-----------------|
E----------------------------------|----------------------------------|----------------------------------|----------------------------------|---2---4----2---4---5---4---2---4-|-0---0----0---0---0---0---0---0---|
A---------------------------------|---------------------------------|---------------------------------|---2---4---2---4---5---4---2---4-|-0---0---0---0---0---0---0---0---|---------------------------------|
E------------------------------------|------------------------------------|------------------------------------|------------------------------------|---2---4----2---4----2---4----2---4-|-0---0----0---0----0---0----0---0---|
B-----------------|-----------------|-----------------|---4---6---7---6-|-2---2---2---2---|-----------------|
A-----------------|-----------------|-----------------|---2---4---5---4-|-0---0---0---0---|-----------------|
E-----------------------------|-----------------------------|-----------------------------|-----------------------------|---2---4----2---4---2--0-1-2-|-0---0----0---0---0----------|
here we go again!verse#2E------------------|------------------|------------------|------------------|---2---4----2---4-|-0---0----0---0---|
A-----------------|-----------------|-----------------|---2---4---5---4-|-0---0---0---0---|-----------------|
E----------------------------------|----------------------------------|----------------------------------|----------------------------------|---2---4----2---4---5---4---2---4-|-0---0----0---0---0---0---0---0---|
A---------------------------------|---------------------------------|---------------------------------|---2---4---2---4---5---4---2---4-|-0---0---0---0---0---0---0---0---|---------------------------------|
E------------------------------------|------------------------------------|------------------------------------|------------------------------------|---2---4----2---4----2---4----2---4-|-0---0----0---0----0---0----0---0---|
B-----------------|-----------------|-----------------|---4---6---7---6-|-2---2---2---2---|-----------------|
A-----------------|-----------------|-----------------|---2---4---5---4-|-0---0---0---0---|-----------------|
E-----------------------------|-----------------------------|-----------------------------|-----------------------------|---2---4----2---4---2--0-1-2-|-0---0----0---0---0----------|
and now some lead!
verse #3E----------------------------------|----5-5/----7B-5------------------|-/4----------------6B-4---6-------|----------------------------5/6---|----------------------------------|--------------------------------7-|
A E----------------------------------|----5-5/----7B-5------------------|-/4----------------6B-4---6-------|----------------------------5/6---|----------------------------------|--------------------------------7-|
B-----9----9----9----9----9----9-|--------------------------------|-7-8----8----8----8----8----8---|--------------------------------|--------------------------------|--------------------------------|
A-----6---5---5---5----|-------------------9/-|-8/7---6---6---6------|----------------------|----------------------|----------------------|
E-3-0---0--0-0-0-0------0-----|---------------------|-----3-------------3-0---3-0-|-0-------------------|-----------------------------|---2-0---------------|-----------------------------|-------2--2-2-2--0---|-----------------------------|-------------------2-|-----------------------------|---------------------|
verse #4E-4------4------4------4-----|---5------5------5------5---|-----6------6------6------6-|----------------------------|----------------------------|----------------------------|
A-3------3------3------3-----|---5------5------5------5---|-----6------6------6------6-|----------------------------|----------------------------|----------------------------|
E-4------4------4------4-----|---5------5------5------5---|-----6------6------6------6-|----------------------------|----------------------------|----------------------------|
-9-7--------------|-----9------------|-------9----------|---------9-8-7----|---------------10-|------------------|
-7B-5----------|-7B-5----------|------7B-5-----|------7B-5-----|-------------6-|-------------6-|-----------7---|-----------7---|---------------|---------------|---------------|---------------|
-3B-0-----------|-----------------|------3B-0------|-----------------|-------------1--|---------------4-|-----------2----|-----2-4---2-6---|----------------|-2-4-----4-------|----------------|-----------------|
B-----9----9----9----9----9----9-|--------------------------------|-7-8----8----8----8----8----8---|--------------------------------|--------------------------------|--------------------------------|
A-----6---5---5---5----|-------------------9/-|-8/7---6---6---6------|----------------------|----------------------|----------------------|
E-3-0---0--0-0-0-0------0-----|---------------------|-----3-------------3-0---3-0-|-0-------------------|-----------------------------|---2-0---------------|-----------------------------|-------2--2-2-2--0---|-----------------------------|-------------------2-|-----------------------------|---------------------|
verse #5trem pick.............................-7----12---7----12---7----12---7----12------------|-9----14---9----14---8----14---8----14--12/-------|----------------------------------------13/----13-|--------------------------------------------14-14-|--------------------------------------------14----|--------------------------------------------------|
--------------------------|-/12--/12--/12--/12-------|-/13--/13--/13--/13----13-|--------------------14-14-|--------------------14----|--------------------------|
trem pick.............................-7----12---7----12---7----12---7----12------------|-8----14---8----14---8----14---8----14--12/-------|----------------------------------------13/----13-|--------------------------------------------14-14-|--------------------------------------------14----|--------------------------------------------------|
--------------------------|-/12--/12--/12--/12-------|-/13--/13--/13--/13----13-|--------------------14-14-|--------------------14----|--------------------------|
.trem.pick.-----------------------------|-/12-/12-/12-/12---12-11-10--|-/13-/13-/13-/13---13-12-11--|-----------------------------|-----------------------------|-----------------------------|
.trem.pick.-----------------------------|-/10-/10-/10-/12---10-9--8---|-/11-/11-/11-/11---11-10-9---|-----------------------------|-----------------------------|-----------------------------|
-------------------------------0-2B-1------|-3-0-------------------------2--------2B-0-|-----3-2-0-------------4-3-2---------------|------------2-2-2-2--2---------------------|-------------------------------------------|-------------------------------------------|
repeat verse #1 & #2 for the ending vamp oveer the sax solo
Tap to rate this tab
 
# A B C D E F G H I J K L M N O P Q R S T U V W X Y Z