Billy Corgan - Dia tab

================================================================================
                            B I L L Y   C O R G A N

                                       -

                                     D I A
================================================================================


                                THEFUTUREEMBRACE
                           (c) Reprise Records - 2005
                     http://www.myspace.com/billycorganmusic


                                 Standard Tuning
                                   E A D G B E

                                 Tempo = 133 BPM
                               Time Signature = 4/4



                          -----------------------------
                                 Transcribed by

                                 PADDY MCMULLAN
                           stinkypoohpants@yahoo.co.uk

                                   Version 1.0
                                17th  March 2009
                             -----------------------

                             Tablature Symbols Used:


 p         -  Pull-Off
 h         -  Hammer-On
 (/)       -  Legato Slide (Blank space indicates length of slide)
 \         -  Slide Down to/Down From (Blank space indicates length of slide)
 /         -  Slide Up To/Up From (Blank space indicates length of slide)
 ( )       -  Ghost Note/Tied Note/Implied Note
 REST      -  Rest and sustain rest for duration of blank space
 <5>       -  Natural Harmonic
 x         -  Dead Note/Muted Note
 4b5r4     -  Bend then Release



================================================================================
Intro 1.1: Guitar 1 with Overdrive (Play once)
================================================================================


* Let notes ring wherever possible *


||------------------------|------------------------|||------------------------|------------------------|||------------------------|------------------------|||-------0-------0--------|-------2-------2--------|||--2-------2-------2--0--|--0-------0-------0--0--|||------------------------|------------------------|
|-----------------------|--------------------------||-----------------------|--------------------------||-----------------------|-------(0)----------------||-------4------4--4--4--|--4--7--4--4--------------||--7--------------------|--------------------7-----||--0--------------------|--------------0--0-----0--|
|------------------------|-----------------------|||------------------------|-----------------------|||------------------------|-----------------------|||-------0-------0--------|-----------------------|||--2-------2-------2--0--|-------0---------------|||------------------------|--2-------2------2--2--||
================================================================================ Intro 1.2: Guitar 2 with Overdrive (Play once) ================================================================================
||-------------------------|-------------------------|||-------------------------|-------------------------|||-------------------------|-------------------------|||--0----0--0--0--0--0--0--|--2----2--2--2--2--2--2--|||--2----2--2--2--2--2--2--|--0----0--0--0--0--0--0--|||-------------------------|-------------------------|
|-------------------------|--------------------------||-------------------------|--------------------------||-------------------------|--------------------------||--9----9--9--9--9--9--9--|--9--9--9--9--9--9--9--9--||--7----7--7--7--7--7--7--|--7--7--7--7--7--7--7--7--||--0----0--0--0--0--0--0--|--0--0--0--0--0--0--0--0--|
|--------------------------|--------------------------|||--------------------------|--------------------------|||--------------------------|--------------------------|||--0--0--0--0--0--0--0--0--|--------------------------|||--2--2--2--2--2--2--2--2--|--0--0--0--0--0--0--0--0--|||--------------------------|--2--2--2--2--2--2--2--2--||
================================================================================ Intro 1.3: Guitar 3 with Overdrive (Play once) ================================================================================
||--------------------------|--------------------------|||--------------------------|--------------------------|||--7--7--7--7--7--7--7--7--|--9--9--9--9--9--9--9--9--|||--9--9--9--9--9--9--9--9--|--7--7--7--7--7--7--7--7--|||--9--9--9--9--9--9--9--9--|--0--0--0--0--0--0--0--0--|||--------------------------|--------------------------|
|--------------------------|--------------------------||--------------------------|--------------------------||--------------------------|--------------------------||--9--9--9--9--9--9--9--9--|--9--9--9--9--9--9--9--9--||--9--9--9--9--9--9--9--9--|--9--9--9--9--9--9--9--9--||--0--0--0--0--0--0--0--0--|--0--0--0--0--0--0--0--0--|
|--------------------------|--------------------------|||--------------------------|--------------------------|||--7--7--7--7--7--7--7--7--|--------------------------|||--9--9--9--9--9--9--9--9--|--7--7--7--7--7--7--7--7--|||--9--9--9--9--9--9--9--9--|--9--9--9--9--9--9--9--9--|||--------------------------|--------------------------||
================================================================================ Verse 1.1: Guitar 1 (Play once) ================================================================================ * Let notes ring wherever possible *
[I receive... your signal down ] 1 2 3||---------------------|----------------------|-----------------------|||---------------------|----------------------|-----------------------|||------------------0--|----------------------|-----------------------|||--2------------------|--4------0------------|-------0---------------|||---------------------|----------------3--2--|-(2)------2----2--2----|||---------------------|----------------------|-----------------------|
[So you see... I found you out] 4 5 6|---------------------|------------------------|----------------------||---------------------|------------------------|----------------------||---------------------|-------0----------0-----|---------0------------||---------------------|--2-------2----2-----2--|--4-------------0-----||--2------------2--0--|------------------------|-------------------2--||---------------------|------------------------|----------------------|
[Shoot the lights we'll get out right and] 7 8 9|------------------------|----------------------|----------------------||------------------------|---------0------------|---------0------------||------------------------|--5-------------------|--4------4------------||-------0----------------|--7-------------0-----|--5-------------------||-(2)------2----2--0--0--|--0-------------------|--7-------------7--0--||------------------------|-------------------0--|----------------------|
[follow... this heart... Shoot the lights we'll] 10 11 12|-------------------------|----------3------------|---------------------||-------------------------|----------1------------|---------0-----------||-------------------------|----------0------------|--5-------------0----||-----0-----0----0--------|-------2---------------|--7------------------||--5-----5----------5--0--|--3------------3----3--|--0------------------||-------------------------|-----------------------|---------------------|
[Get out right and... follow... this heart] 13 14 15|----------------------|-------------------------|----------------------||---------0------------|-------------------------|--1-------------------||--4------4------------|-------------------------|--0------------0------||--5-------------------|-----0-----4----4-----0--|--2---------2---------||--7-------------7--0--|--5-----5----------5-----|--3------3------------||----------------------|-------------------------|----------------------|
[Something... fades away... I never] 16 17 18|----------------------|---------------------|--0-------0-------0--0--||-------1----3----1----|---------0-----------|--0----0--0----0--0--0--||--0-------------------|--2-------------0----|--4----4--4----4--4--4--||--2-------------------|-(2)-----------------|--5----5--5----5--5--5--||--3-------------------|-(3)-----------------|--7---------------------||----------------------|---------------------|------------------------|
[lost you... Circle my mistakes] 19 20 21|----------0-------0--0--|---------------0--0--0--|--0-------0-------------||--0----0--0----0--0--0--|--0----0--0----1--1--1--|--1----1--0----0--------||--0----0--0----0--0--0--|--0----0--0----0--0--0--|--2----2--0-------0-----||--4----4--4----4--4--4--|--2----2--2----2--2--2--|--2----2--2----------2--||--5----5--5----5--5--5--|--3----3--3----3--3--5--|--0----0--2-------------||------------------------|------------------------|----------0-------------|
[I never.. lost you for good] 22 23 24|--0----------------|---------------------|-------------------|||--0----------------|---------------------|--0----------------|||--4----------------|---------0-----------|--0----------------|||--5----------------|--4------------------|--0----------------|||--7----------------|--5------------------|--2----------------|||-------------------|---------------------|-------------------||
================================================================================ Verse 1.2: Guitar 2 (Play once) ================================================================================ * Let notes ring wherever possible *
[I receive... your signal down - etc.] 1 2||--0--0--0--0--0--0--0--0--|--0--0--0--0--0--0--0--0--|||--0--0--0--0--0--0--0--0--|--0--0--0--0--0--0--0--0--|||--4--4--4--4--4--4--4--4--|--4--4--4--4--4--4--4--4--|||--5--5--5--5--5--5--5--5--|--5--5--5--5--5--5--5--5--|||--7--7--7--7--7--7--7--7--|--7--7--7--7--7--7--7--7--|||--------------------------|--------------------------|
3 4|--------------------------|--------------------------||--0--0--0--0--0--0--0--0--|--0--0--0--0--0--0--0--0--||--0--0--0--0--0--0--0--0--|--0--0--0--0--0--0--0--0--||--7--7--7--7--7--7--7--7--|--7--7--7--7--7--7--7--7--||--5--5--5--5--5--5--5--5--|--5--5--5--5--5--5--5--5--||--7--7--7--7--7--7--7--7--|--7--7--7--7--7--7--7--7--|
5 6|--0--0--0--0--0--0--0--0--|--0--0--0--0--0--0--0--0--||--0--0--0--0--0--0--0--0--|--0--0--0--0--0--0--0--0--||--4--4--4--4--4--4--4--4--|--4--4--4--4--4--4--4--4--||--5--5--5--5--5--5--5--5--|--5--5--5--5--5--5--5--5--||--7--7--7--7--7--7--7--7--|--7--7--7--7--7--7--7--7--||--------------------------|--------------------------|
7 8|--------------------------|------------------------||--0--0--0--0--0--0--0--0--|----------0----------0--||--0--0--0--0--0--0--0--0--|--5----5--5----5--5--0--||--7--7--7--7--7--7--7--7--|--7----7--7----7--7--0--||--5--5--5--5--5--5--5--5--|--0----0--0----0--0-----||--7--7--7--7--7--7--7--7--|------------------------|
9 10 11|------------------------|-------------------------|----------0------------||--0-------0-------------|-----------0----0--------|----------0------------||--4----4--4----4--------|--2--2--2--2----2--2-----|----------0------------||--5----5--5----5--------|--4--4--4--4----4--4--0--|-------2---------------||--7----7--7----7--7--0--|--5--5--5--5----5--5--0--|--3--------------3--0--||------------------------|-------------------------|-----------------------|
12 13|------------------------|------------------------||----------0----------0--|--0-------0-------------||--5----5--5----5--5--0--|--4----4--4----4--------||--7----7--7----7--7--0--|--5----5--5----5--------||--0----0--0----0--0-----|--7----7--7----7--7--0--||------------------------|------------------------|
14 15 16|-------------------------|-----------------------|-----------------------||-----------0----0--------|---------1----1--1--1--|----------1-------1----||--2--2--2--2----2--2-----|--0------0----0--0--0--|--0----------0---------||--4--4--4--4----4--4--0--|--2------2----2--2--2--|--2--------------------||--5--5--5--5----5--5--0--|--3------3----3--3--3--|--3----3---------------||-------------------------|-----------------------|-----------------------|
17 18 19|-----------------------|----------------------|-----------------------||----------0------------|------------0---------|--1----0-------0-------||--2----0----------0----|-------0---------0----|--0-------0-------0----||-(2)-----------2-------|--5-------------------|--0--------------------||-(3)-------------------|--7-------------------|-----------------------||-----------------------|----------------------|-----------------------|
20 21 22|---------------------|--0------0-------------|--0----------------||-------0----1--------|--1------0----0--------|--0----------------||--0------------------|--2--------------0-----|--4----------------||--2------------------|--2-----------------2--|--5----------------||--3------------------|-----------------------|--7----------------||---------------------|-----------------------|-------------------|
23 24|--2--------------------|-------------------------|||---------3------1 p 0--|--0----0--0--0--0--0--0--|||-----------------------|--0----0--0--0--0--0--0--|||-----------------------|--4----4--4--4--4--4--4--|||-----------------------|--2----2--2--2--2--2--2--|||-----------------------|-------------------------||
================================================================================ Verse 1.3: Guitar 3 (Play once) ================================================================================ * Let notes ring wherever possible *
[I receive... your signal down - etc.] 1 2||--0--0--0--0--0--0--0--0--|--0--0--0--0--0--0--0--0--|||--0--0--0--0--0--0--0--0--|--0--0--0--0--0--0--0--0--|||--4--4--4--4--4--4--4--4--|--4--4--4--4--4--4--4--4--|||--5--5--5--5--5--5--5--5--|--5--5--5--5--5--5--5--5--|||--7--7--7--7--7--7--7--7--|--7--7--7--7--7--7--7--7--|||--------------------------|--------------------------|
3 4|--------------------------|--------------------------||--0--0--0--0--0--0--0--0--|--0--0--0--0--0--0--0--0--||--0--0--0--0--0--0--0--0--|--0--0--0--0--0--0--0--0--||--7--7--7--7--7--7--7--7--|--7--7--7--7--7--7--7--7--||--5--5--5--5--5--5--5--5--|--5--5--5--5--5--5--5--5--||--7--7--7--7--7--7--7--7--|--7--7--7--7--7--7--7--7--|
5 6|--0--0--0--0--0--0--0--0--|--0--0--0--0--0--0--0--0--||--0--0--0--0--0--0--0--0--|--0--0--0--0--0--0--0--0--||--4--4--4--4--4--4--4--4--|--4--4--4--4--4--4--4--4--||--5--5--5--5--5--5--5--5--|--5--5--5--5--5--5--5--5--||--7--7--7--7--7--7--7--7--|--7--7--7--7--7--7--7--7--||--------------------------|--------------------------|
7 8|--------------------------|--0-------0-------------||--0--0--0--0--0--0--0--0--|--0-------0----------0--||--0--0--0--0--0--0--0--0--|--5----5--5----5--5--0--||--7--7--7--7--7--7--7--7--|--7----7--7----7--7--0--||--5--5--5--5--5--5--5--5--|--0----0--0----0--0-----||--7--7--7--7--7--7--7--7--|------------------------|
9 10|--0-------0----0--0--0--|-------------------------||--0-------0----0--0--0--|--0--0--0--0----0--------||--4----4--4----4--4--4--|--2--2--2--2----2--2-----||--5----5--5----5--5--5--|--4--4--4--4----4--4--0--||--7----7--7----7--7--7--|--5--5--5--5----5--5--0--||------------------------|-------------------------|
11 12 13|----------3----3--3--3--|--0-------0-------------|--0-------0-------------||----------3----3--3--3--|--0-------0----------0--|--0-------0----0--------||----------0----0--0--0--|--5----5--5----5--5--0--|--4----4--4----4--4--4--||-------2-------2--2--2--|--7----7--7----7--7--0--|--5----5--5----5--5--5--||--3---------------3-----|--0----0--0----0--0-----|--7----7--7----7--7--7--||------------------------|------------------------|------------------------|
14 15 16|-------------------------|---------------------|----------------------||--0--0--0--0----0--------|---------------------|-------1----3----1----||--2--2--2--2----2--2-----|--0-----------0------|--0-------------------||--4--4--4--4----4--4--0--|--2------------------|--2-------------------||--5--5--5--5----5--5--0--|--3------3-----------|--3-------------------||-------------------------|---------------------|----------------------|
17 18 19|---------------------|----------------------|------------------------||---------0-----------|--1---------0---------|------------------------||--2-------------0----|--0----0---------0----|--5------4----5-(5 \4)--||---------------------|--2-------------------|--0-----------0--0------||---------------------|----------------------|------------------------||---------------------|----------------------|------------------------|
20 21 22|---------------------|--0------0------------|--0----------------||--0------3-----------|--1------0------------|--0----------------||--4-------------0----|--2-------------0-----|--4----------------||---------------------|--2----------------0--|--5----------------||---------------------|----------------------|--7----------------||---------------------|----------------------|-------------------|
23 24|---------------------|-------------------------|||---------------------|--0----0--0--0--0--0--0--|||---------0-----------|--0----0--0--0--0--0--0--|||--4------------------|--4----4--4--4--4--4--4--|||--5-------------0----|--2----2--2--2--2--2--2--|||---------------------|-------------------------||
================================================================================ Pre-Chorus 1.1: Guitar 1 (Play once) ================================================================================ * Let notes ring wherever possible *
[ Ain't I something?... I feel nothing]||------------------------|------------------------|||--3---------------------|------------------------|||--0-------2-------0-----|----------2-------------|||--0---------------------|--4---------------4-----|||--2----2-------------2--|--2----2-------2-----2--|||--3----3-------3--------|------------------------|
[I could never hide]|-----------------------|--------------------------||--0--------------------|--------------------------||--0---------------0----|---------0----------------||--2-------4------------|--0 h 2-----0----0--0--0--||--2----2-------2-------|--------------------------||--0--------------------|--------------------------|
[Am I bluffin'?... Am I just denied?]|-------------------------|--------------------------||--1-------0 h 1--1-----|-----0--------------------||--2----------------2--0--|--0-----0-----0-----0-----||--2----2--------------0--|--2-----------------------||--0-------------------0--|--2--------2-----2-----2--||-------------------------|--0-----------------------|
|-----------------------|||-----------------------|||-----------0-----------|||-----0--4--------------|||--5--------------------|||-----------------------||
================================================================================ Pre-Chorus 1.2: Guitars 2 & 3 (Play once) ================================================================================
[ Ain't I something?... I feel nothing - etc.]||--------------------------|--------------------------|||--3--3--3--3--3--3--3--3--|--3--3--3--3--3--3--3--3--|||--0--0--0--0--0--0--0--0--|--0--0--0--0--0--0--0--0--|||--0--0--0--0--0--0--0--0--|--4--4--4--4--4--4--4--4--|||--2--2--2--2--2--2--2--2--|--2--2--2--2--2--2--2--2--|||--------------------------|--------------------------|
|--0--0--0--0--0--0--0--0--|--0--0--0--0--0--0--0--0--||--3--3--3--3--3--3--3--3--|--3--3--3--3--3--3--3--3--||--0--0--0--0--0--0--0--0--|--0--0--0--0--0--0--0--0--||--2--2--2--2--2--2--2--2--|--2--2--2--2--2--2--2--2--||--2--2--2--2--2--2--2--2--|--2--2--2--2--2--2--2--2--||--------------------------|--------------------------|
|--0--0--0--0--0--0--0--0--|--3--3--3--3--3--3--3--3--||--1--1--1--1--1--1--0--0--|--3--3--3--3--3--3--3--3--||--2--2--2--2--2--2--2--2--|--0--0--0--0--0--0--0--0--||--2--2--2--2--2--2--2--2--|--2--2--2--2--2--2--2--2--||--0--0--0--0--0--0--0--0--|--2--2--2--2--2--2--2--2--||--------------------------|--------------------------|
|--2--2--2--2--2--2--2--2--|||--3--3--3--3--3--3--3--3--|||--2--2--2--2--2--2--2--2--|||--0--0--0--0--0--0--0--0--|||--------------------------|||--------------------------||
================================================================================ Chorus 1.1: Guitar 1 (Play once) ================================================================================ * Let notes ring wherever possible *
[Mirror mirror]||------------------------|-----------------------|||--------0--1------1--0--|--1-------0------------|||--------0---------------|--2----2--2------2-----|||-----2------------------|--2----2------------2--|||--3---------------------|--0--------------------|||------------------------|-----------------------|
[Reflect this scream... I've held my beliefs]|-----------------------|------------------------|-----------------------||----------0------0-----|--3-------3-------------|--0----0--1------1--1--||----------0------------|--2----2--2-------0--0--|--0----0--0------0--0--||--2----2------------4--|--4----4--4--4----4--4--|--2----2--2------2--2--||--2--------------------|--5----5--5--5----5--5--|--3----3--3------3--3--||--0--------------------|------------------------|-----------------------|
[Beside... these dreams]|-----------------------|------------------------|------------------------|||--0--------------------|------------------------|------------------------|||--2-------2------2--0--|--0-------0----0--2-----|--2-----0---------0-----|||--2----2------------0--|--2-------2----------4--|--4--4--4------------4--|||--0--------------------|--2----2----------------|--5--5--5----5----------|||-----------------------|--0----0----------------|------------------------||
================================================================================ Chorus 1.2: Guitar 2 (Play once) ================================================================================ * Let notes ring wherever possible *
[Mirror mirror - etc.]||--------------------------|---------------------------|||--0--0--0--0--0--0--0--0--|---------------------------|||--4--4--4--4--5--5--5--5--|--7--7-(4 b 5 r 4)-------|||--5--5--5--5--5--5--5--5--|--5--5--5------------2--2--|||--3--3--3--3--3--3--3--3--|--0--0--0------------2--2--|||--------------------------|---------------------0--0--|
|--------------------------|--------------------------||--------------------------|--------------------------||--------0--0--0--0--0--0--|--------------------0-----||--------5--5--5--5--5--5--|-----4-----4-----4-----4--||--7--7--7--7--7--7--7--7--|--5-----5-----5-----------||--0--0--0--0--0--0--0--0--|--------------------------|
|--------------------------|--0--0--0--0--0--0--0--0--||--0--0--0--0--0--0--0--0--|--1--1--1--1--1--1--1--1--||--4--4--4--4--5--5--5--5--|--2--2--2--2--2--2--2--2--||--5--5--5--5--5--5--5--5--|--2--2--2--2--2--2--2--2--||--3--3--3--3--3--3--3--3--|--0--0--0--0--0--0--0--0--||--------------------------|--------------------------|
|--------------------------|--------------------------|||--------------------------|--------------------------|||--0--0--0--0--0--0--------|-----------0--------------|||--5--5--5--5--5-----7--4--|-----4-----------4-----4--|||--7--7--7--7--7-----------|--5-----5-----5-----5-----|||--0--0--0--0--0-----------|--------------------------||
================================================================================ Chorus 1.3: Guitar 3 (Play once) ================================================================================ * Let notes ring wherever possible *
[Mirror mirror - etc.]||--------------------------|--0--0--0--0--0--0--0--0--|||--0--0--0--0--0--0--0--0--|--1--1--1--1--0--0--0--0--|||--4--4--4--4--5--5--5--5--|--2--2--2--2--2--2--2--2--|||--5--5--5--5--5--5--5--5--|--2--2--2--2--2--2--2--2--|||--3--3--3--3--3--3--3--3--|--0--0--0--0--0--0--0--0--|||--------------------------|--------------------------|
|--------------------------|------------------------||--------------------------|------------------------||--0--0--0--0--0--0--0--0--|-------------------0----||--5--5--5--5--5--5--5--5--|--4-----4-----4---------||--7--7--7--7--7--7--7--7--|--5--5-----5------------||--0--0--0--0--0--0--0--0--|------------------------|
|--------------------------|--0--0--0--0--0--0--0--0--||--0--0--0--0--0--0--0--0--|--1--1--1--1--0--0--0--0--||--4--4--4--4--5--5--5--5--|--2--2--2--2--2--2--2--2--||--5--5--5--5--5--5--5--5--|--2--2--2--2--2--2--2--2--||--3--3--3--3--3--3--3--3--|--0--0--0--0--0--0--0--0--||--------------------------|--------------------------|
|--------------------------|------------------------|||--------------------------|------------------------|||--0--0--0--0--0--0--------|-----------0------------|||--5--5--5--5--5-----7--4--|-----4------------------|||--7--7--7--7--7-----------|--5-----5-----5----5----|||--0--0--0--0--0-----------|------------------------||
================================================================================ Breakdown 1.1: Guitar 1 (Play once) ================================================================================ * Let notes ring wherever possible *
[I can't guess... where we'll be tomorrow] 1 2 3||--------------------|-------------------|--3------------3----|||--------------------|-------------------|--0------------3----|||--0-----------------|--(0)--------------|--2------------0----|||--------------------|-------------------|--0------------2----|||--------------------|-------------------|--------------------|||-------0------------|--(0)--------------|--------------------|
[Just one wish] 4 5 6|--(3)--------------|--(3)--------------|--(3)--------------||--(3)--------------|--(3)--------------|--(3)--------------||--(0)--------------|--(0)--------------|--(0)--------------||--(2)--------------|--(2)--------------|--(2)--------------||-------------------|-------------------|-------------------||-------------------|-------------------|-------------------|
[Rumours of tomorrow] 7 8 9|--3------------3----|--(3)--------------|------------------------||--0------------1----|--(1)--------------|------------------------||--2------------0----|--(0)--------------|------------------------||--0------------2----|--(2)--------------|-------0-------0--------||--------------------|-------------------|--2-------2-------2--0--||--------------------|-------------------|------------------------|
[Can I face tomorrow 10 11|------------------------|-----------------------||------------------------|-----------------------||------------------------|-----------------------||-------2-------2--------|-------4------4--4--4--||--0-------0-------0--0--|--7--------------------||------------------------|--0--------------------|
[ with you?] 12 13|--------------------------|------------------------||--------------------------|------------------------||-------(0)----------------|------------------------||--4--7--4--4--------------|-------0-------0--------||--------------------7-----|--2-------2-------2--0--||--------------0--0-----0--|------------------------|
14|-----------------------|||-----------------------|||-----------------------|||-----------------------|||-------0---------------|||--2-------2------2--2--||
================================================================================ Breakdown 1.2: Guitar 2 (Play once) ================================================================================ * Let notes ring wherever possible *
[I can't guess... where we'll be tomorrow - etc.] 1 2 3||-------------------|-------------------|--3------------3----|||--0----------------|--(0)--------------|--0------------3----|||--0----------------|--(0)--------------|--2------------0----|||--2----------------|--(2)--------------|--0------------2----|||--2----------------|--(2)--------------|--------------------|||--0----------------|--(0)--------------|--------------------|
4 5 6|--(3)--------------|-----------------------|----------------------||--(3)--------------|--12------12------8----|--(8)----------7 h 8--||--(0)--------------|--0-------0-------0----|--(0)----------0------||--(2)--------------|-----------------------|----------------------||-------------------|-----------------------|----------------------||-------------------|-----------------------|----------------------|
7 8 9|-----------------------|-------------------|-------------------------||--7--------- \ 8--8----|--(8)--------------|-------------------------||--0---------------5----|--(5)--------------|-------------------------||------------------5----|--(5)--------------|--0----0--0--0--0--0--0--||-----------------------|-------------------|--2----2--2--2--2--2--2--||-----------------------|-------------------|-------------------------|
10 11|-------------------------|-------------------------||-------------------------|-------------------------||-------------------------|-------------------------||--2----2--2--2--2--2--2--|--9----9--9--9--9--9--9--||--0----0--0--0--0--0--0--|--7----7--7--7--7--7--7--||-------------------------|--0----0--0--0--0--0--0--|
12 13|--------------------------|--------------------------||--------------------------|--------------------------||--------------------------|--------------------------||--9--9--9--9--9--9--9--9--|--0--0--0--0--0--0--0--0--||--7--7--7--7--7--7--7--7--|--2--2--2--2--2--2--2--2--||--0--0--0--0--0--0--0--0--|--------------------------|
14|--------------------------|||--------------------------|||--------------------------|||--------------------------|||--0--0--0--0--0--0--0--0--|||--2--2--2--2--2--2--2--2--||
================================================================================ Breakdown 1.3: Guitar 3 (Play once) ================================================================================ * Let notes ring wherever possible *
[I can't guess... where we'll be tomorrow - etc.] 1 2 3||----------------------|-------------------|--3------------3----|||--0-------------------|--(0)--------------|--0------------3----|||---------------0------|--(0)--------------|--2------------0----|||------------2---------|--(2)--------------|--0------------2----|||----------------------|-------------------|--------------------|||-------0--------------|--(0)--------------|--------------------|
4 5 6|--(3)--------------|-----------------------|----------------------||--(3)--------------|--12------10------8----|--(8)----------7 h 8--||--(0)--------------|--0-------0-------0----|--(0)----------0------||--(2)--------------|-----------------------|----------------------||-------------------|-----------------------|----------------------||-------------------|-----------------------|----------------------|
7 8 9|--------------------|-------------------|--------------------------||--7------------8----|--(8)--------------|--------------------------||--0------------0----|--(0)--------------|--7--7--7--7--7--7--7--7--||--------------------|-------------------|--9--9--9--9--9--9--9--9--||--------------------|-------------------|--9--9--9--9--9--9--9--9--||--------------------|-------------------|--------------------------|
10 11|--------------------------|--------------------------||--------------------------|--------------------------||--9--9--9--9--9--9--9--9--|--------------------------||--7--7--7--7--7--7--7--7--|--9--9--9--9--9--9--9--9--||--0--0--0--0--0--0--0--0--|--9--9--9--9--9--9--9--9--||--------------------------|--0--0--0--0--0--0--0--0--|
12 13|--------------------------|--------------------------||--------------------------|--------------------------||--------------------------|--7--7--7--7--7--7--7--7--||--9--9--9--9--9--9--9--9--|--9--9--9--9--9--9--9--9--||--9--9--9--9--9--9--9--9--|--9--9--9--9--9--9--9--9--||--0--0--0--0--0--0--0--0--|--------------------------|
14|--------------------------|||--------------------------|||--------------------------|||--7--7--7--7--7--7--7--7--|||--9--9--9--9--9--9--9--9--|||--------------------------||
================================================================================ Lead Fill 1: Guitar 4 with Heavy Distortion (Play once) ================================================================================ This fill enters on bar 9 of Breakdown 1 * Let notes ring wherever possible *
||------------------------|--------19--------------|||--19--------------------|--17--------------------|||------------------------|------------------------|||--------16--------------|--------------14--------|||------------------------|------------------------|||--------------14--------|------------------------|
|------------------------|--------19---------------||--15------------15------|--15---------------------||--------------------16--|-------------------------||------------------------|------------14-----------||------------------------|-------------------------||------------------------|-------------------------|
|-------------------------|--------19--------------|--17----------------||--19---------------------|--17--------------------|--15----------------||-------------------------|------------------------|--------------------||--------16---------------|--------------14--------|--------------------||-------------------------|------------------------|--------------------||------------14-----------|------------------------|--------------------|
|--(17)-------------|||--(15)-------------|||-------------------|||-------------------|||-------------------|||-------------------||
================================================================================ Verse 2.1: Guitar 1 (Rest for 7 bars, then play the following once) ================================================================================ * Let notes ring wherever possible * Note: the lyrics for this part are printed in Guitar 2's riff.
8 9|----------------------|------------------------||---------0------------|------------------------||--5-------------------|--4---------------------||--7-------------0-----|--5----5----------------||--0-------------------|--7----7--7----7--7--0--||-------------------0--|----------0----0--0--0--|
10 11|-------------------------|----------3------------||-------------------------|----------0------------||-------------------------|----------0------------||-----0-----0----0--------|-------2---------------||--5-----5----------5--0--|--3------------3----3--||-------------------------|-----------------------|
12 13 14|-------------------------|--0------0-------------|-----------------------|||--0-------0--------------|--3------3----3--------|-----------------------|||--5----------------------|--0------0----0--2-----|-----------0-----------|||--7------------4 p 0-----|--2------2----2-----0--|-----0--4--------------|||--0----0--------------0--|-----------------------|--5--------------------|||-------------------------|-----------------------|-----------------------||
================================================================================ Verse 2.2: Guitar 2 (Play once) [ Guitar 1 rests for the duration of this riff ] ================================================================================ * Let notes ring wherever possible *
[To the nines... you want it all] 1 2||--0--0--0--0--0--0--0--0--|--0---0---0---0---0---0---0---0----|||--0--0--0--0--0--0--0--0--|--10--10--10--10--10--10--10--10 / |||--7--7--7--7--7--7--7--7--|--7---7---7---7---7---7---7---7----|||--9--9--9--9--9--9--9--9--|--9---9---9---9---9---9---9---9 / |||--------------------------|-----------------------------------|||--------------------------|-----------------------------------|
[I...] 3 4|----------------------------------|--10--10--10--10--10--10--10--10--||--12--12--12--12--12--12--12--12--|--0---0---0---0---0---0---0---0---||--0---0---0---0---0---0---0---0---|--0---0---0---0---0---0---0---0---||--9---9---9---9---9---9---9---9 / |--10--10--10--10--10--10--10--10--||----------------------------------|----------------------------------||----------------------------------|----------------------------------|
[perceive... you'll sell me out] 5 6|--0--0--0--0--0--0--0--0--|--0---0---0---0---0---0---0---0----||--0--0--0--0--0--0--0--0--|--10--10--10--10--10--10--10--10 / ||--7--7--7--7--7--7--7--7--|--7---7---7---7---7---7---7---7----||--9--9--9--9--9--9--9--9--|--9---9---9---9---9---9---9---9 / ||--------------------------|-----------------------------------||--------------------------|-----------------------------------|
[Shoot the lights we'll] 7 8|----------------------------------|------------------------||--12--12--12--12--12--12--12--12--|----------0----------0--||--0---0---0---0---0---0---0---0---|--5----5--5----5--5--0--||--9---9---9---9---9---9---9---9---|--7----7--7----7--7--0--||----------------------------------|--0----0--0----0--0-----||----------------------------------|------------------------|
[Get out right and... swallow... this heart] 9 10 11|------------------------|-------------------------|----------3------------||--0-------0-------------|-----------0----0--------|----------0------------||--4----4--4----4--------|--2--2--2--2----2--2-----|----------0------------||--5----5--5----5--------|--4--4--4--4----4--4--0--|-------2---------------||--7----7--7----7--7--0--|--5--5--5--5----5--5--0--|--3--------------3--0--||------------------------|-------------------------|-----------------------|
[Shoot the lights we'll... get out right in... time] 12 13 14|------------------------|------------------------|-----------------------|||----------0----------0--|--0-------0-------------|-----------------------|||--5----5--5----5--5--0--|--4----4--4----4--------|-----------0-----------|||--7----7--7----7--7--0--|--5----5--5----5--------|-----0--4--------------|||--0----0--0----0--0-----|--7----7--7----7--7--0--|--5--------------------|||------------------------|------------------------|-----------------------||
================================================================================ Verse 2.3: Guitar 3 (Play once) ================================================================================ * Let notes ring wherever possible *
[To the nines... you want it all - etc.] 1 2||--------------------------|--------------------------|||--------------------------|--------------------------|||--9--9--9--9--9--9--9--9--|--9--9--9--9--9--9--9--9--|||--9--9--9--9--9--9--9--9--|--9--9--9--9--9--9--9--9--|||--7--7--7--7--7--7--7--7--|--7--7--7--7--7--7--7--7--|||--------------------------|--------------------------|
3 4|-----------------------------------|----------------------------------||--12--12--12--12--12--12--12--12 / |--13--13--13--13--13--13--13--13--||--x---x---x---x---0---0---0---0----|--0---0---0---0---0---0---0---0---||--9---9---9---9---9---9---9---9 / |--10--10--10--10--10--10--10--10--||-----------------------------------|----------------------------------||-----------------------------------|----------------------------------|
5 6|--0--0--0--0--0--0--0--0--|--0---0---0---0---0---0---0---0---||--0--0--0--0--0--0--0--0--|--10--10--10--10--10--10--10--10--||--7--7--7--7--7--7--7--7--|--7---7---7---7---7---7---7---7---||--9--9--9--9--9--9--9--9--|--9---9---9---9---9---9---9---9---||--------------------------|----------------------------------||--------------------------|----------------------------------|
7 8|----------------------------------|--0-------0-------------||--12--12--12--12--12--12--12--12--|--0-------0----------0--||--0---0---0---0---0---0---0---0---|--5----5--5----5--5--0--||--9---9---9---9---9---9---9---9---|--7----7--7----7--7--0--||----------------------------------|--0----0--0----0--0-----||----------------------------------|------------------------|
9 10|--0-------0----0--0--0--|-------------------------||--0-------0----0--0--0--|--0--0--0--0----0--------||--4----4--4----4--4--4--|--2--2--2--2----2--2-----||--5----5--5----5--5--5--|--4--4--4--4----4--4--0--||--7----7--7----7--7--7--|--5--5--5--5----5--5--0--||------------------------|-------------------------|
11 12 13|----------3----3--3--3--|--0-------0-------------|--0-------0-------------||----------3----3--3--3--|--0-------0----------0--|--0-------0----0--------||----------0----0--0--0--|--5----5--5----5--5--0--|--4----4--4----4--4--4--||-------2-------2--2--2--|--7----7--7----7--7--0--|--5----5--5----5--5--5--||--3---------------3-----|--0----0--0----0--0-----|--7----7--7----7--7--7--||------------------------|------------------------|------------------------|
14|--------------------------------|||--10--10--10--10----10--10--10--|||--7---7---7---7-----7---7---7---|||--7---7---7---7-----7---7---7---|||--------------------------------|||--------------------------------||
================================================================================ Lead Fill 2: Guitar 4 (Play once) ================================================================================ This fill enters on bar 8 of the Verse riff. * Let notes ring wherever possible *
||-----------------------|------------------------|||----------12-----------|--15------15------15----|||--14-------------------|--x-------x-------x-----|||--14--------------0----|--12------12------12----|||-----------------------|------------------------|||-----------------------|------------------------|
|--14--------------14----|--15------------------|--12----------------||--15--------------------|--15------------------|--12----------------||------------------------|--0-------0-----------|--------------------||--------12--------------|----------------------|--------------------||------------------------|----------------------|--------------------||------------------------|----------------------|--------------------|
|--10----------------|--------------------|||--10----------------|--10----------------|||--------------------|--x-----------------|||--------------------|--7-----------------|||--------------------|--------------------|||--------------------|--------------------||
================================================================================ Chorus 2.1: Guitar 1 (Play once) ================================================================================ * Let notes ring wherever possible *
[Mirror mirror]||------------------------|-----------------------|||--------0--1------1--0--|--1-------0------0-----|||--------0---------------|--2----2--2------0-----|||-----2------------------|--2----2------------2--|||--3---------------------|--0--------------------|||------------------------|-----------------------|
[Reflect this scream... I've held my beliefs]|-----------------------|------------------------|-----------------------||----------0------------|------------------------|--0----0--1------1--1--||----------0------2-----|--2----------------0----|--0----0--0------0--0--||--2----2------------4--|--4-----4-----4---------|--2----2--2------2--2--||--2--------------------|--5--5-----5------------|--3----3--3------3--3--||--0--------------------|------------------------|-----------------------|
[Beside... these dreams]|-----------------------|------------------------|------------------------|||--0--------------------|------------------------|------------------------|||--2-------2------2--0--|--0-------0----0--2-----|--2---------------0-----|||--2----2------------0--|--2-------2----------4--|--4-------4----------2--|||--0--------------------|--2----2----------------|--5----5-----5----------|||-----------------------|--0----0----------------|------------------------||
================================================================================ Chorus 2.2/2.3: Guitars 2 & 3 play their respective parts of Chorus 1 ================================================================================ ================================================================================ Breakdown 2.1: Guitar 1 (Play once) ================================================================================ * Let notes ring wherever possible *
1 2||-----------------------|---------------------------|||------------------0----|---------------------------|||------------------4----|----------------0----0-----|||--0----------0----4----|--4 p 2--4 p 2----------2--|||--2-------2-------2----|---------------------------|||--2----2---------------|---------------------------|
[Can I face tomorrow... with you?] 3 4 5|-----------------------|--------------------------|----------------------||-----------------------|--------------------------|----------------------||----------0------------|--------------------------|--0---------0----0----||-------4----------4----|-----5 p 4------5 p 4--2--|--4---------4----0----||--5------------5-------|--5-----------------------|--x----4--------------||-----------------------|--------------------------|--2----2--------------|
[Can I face tomorrow] 6 7|-------------------------|-----------------------||--0-----------0----0-----|------------------0----||--0-----------0----0-----|------------------4----||--4--2--4--2--5----5--2--|--0----------0----4----||-------------------------|--2-------2-------2----||-------------------------|--2----2---------------|
[with you?] 8 9|--------------------------|----------------------||--------------------------|-----------------3----||--------------------------|-----------------2----||-----5--4---(4 \5)--4--0--|--4--------------0----||--2-----2----2------2--0--|--4---------4---------||--------------------------|--2----2--------------|
[Drag me to the hollows] 10 11|-------------------------|-----------------------||--3--3--3--3--3----------|------------------3----||--2--2--2--2--2----------|------------------4----||--0--0--0--0--0----2-----|--0----------0----4----||----------------------0--|--2-------2-------2----||-------------------------|--2----2---------------|
[and choose] 12 13 14|--------------------------|-------------------|---------------------||--3-----------------------|--1----------------|---------------------||--4-----------------------|--0----------------|---------------------||--4-(5 \ 4)----4-(5 \ 4)-|--2----------------|---------2-----------||--2--2----------2--2---2--|--3----------------|--0------------------||--------------------------|-------------------|---------------------|
[The lanterns swing,... the swans lie low] 15 16|---------------------------|--------------------------||---------------------------|--0----0-----0 h 3--3--3--||--4----------4/(5 \ 4)----|--2----2--2--2------2--2--||--5----5--5-----5----------|--4----4--4--4------4--4--||--7----7--7-----7----------|--5-------5--5------5-----||---------------------------|--------------------------|
[We stand alone.] 17 18 19|-------------------------|----------0-------------|---------------------|||--1-------1--1 p 0----0--|----------1------1 p 0--|--0------------------|||--0----0--0--0--------0--|----------2-------------|--0------------0--0--|||--2----2--2--2--------2--|-------2----------------|--2------------2--2--|||--3----3--3--3--------3--|--0---------------------|--2------------------|||-------------------------|------------------------|--0------------------||
================================================================================ Breakdown 2.2: Guitars 2 & 3 (Play twice) ================================================================================ * Let notes ring wherever possible *
1 2||--5----5----5----5--7--|--7--7--7--7--7----7--7--|||--0----0----0----0--0--|--0--0--0--0--0----0--0--|||--2----2----2----2--4--|--4--4--4--4--4----4--4--|||--0----0----0----0--0--|--0--0--0--0--0----0--0--|||-----------------------|-------------------------|||-----------------------|-------------------------|
[Can I face tomorrow... with you? - etc.] 3 4|--7--7--7--7--7--7--7--7--|--7--7--7--7--7--7--7--7--||--0--0--0--0--0--0--0--0--|--0--0--0--0--0--0--0--0--||--4--4--4--4--4--4--4--4--|--4--4--4--4--4--4--4--4--||--0--0--0--0--0--0--0--0--|--0--0--0--0--0--0--0--0--||--------------------------|--------------------------||--------------------------|--------------------------|
5 6|--5----5----5----5--7--|--7--7--7--7--7----7--7--||--0----0----0----0--0--|--0--0--0--0--0----0--0--||--2----2----2----2--4--|--4--4--4--4--4----4--4--||--0----0----0----0--0--|--0--0--0--0--0----0--0--||-----------------------|-------------------------||-----------------------|-------------------------|
7 8|--7--7--7--7--7--7--7--7--|--7--7--7--7--7--7--7--7--||--0--0--0--0--0--0--0--0--|--0--0--0--0--0--0--0--0--||--4--4--4--4--4--4--4--4--|--4--4--4--4--4--4--4--4--||--0--0--0--0--0--0--0--0--|--0--0--0--0--0--0--0--0--||--------------------------|--------------------------||--------------------------|--------------------------|
9 10|--7--7--7--7--7--7--7--7--|--7--7--7--7--7--7--7--7--||--0--0--0--0--0--0--0--0--|--0--0--0--0--0--0--0--0--||--4--4--4--4--4--4--4--4--|--4--4--4--4--4--4--4--4--||--0--0--0--0--0--0--0--0--|--0--0--0--0--0--0--0--0--||--------------------------|--------------------------||--------------------------|--------------------------|
11 12 13|--7--7--7--7--7--7--7--7--|--7--7--7--7--7--7--7--7--|--0----------------||--0--0--0--0--0--0--0--0--|--0--0--0--0--0--0--0--0--|--0----------------||--4--4--4--4--4--4--4--4--|--4--4--4--4--4--4--4--4--|--5----------------||--0--0--0--0--0--0--0--0--|--0--0--0--0--0--0--0--0--|--5----------------||--------------------------|--------------------------|--3----------------||--------------------------|--------------------------|-------------------|
14 15 16|--(0)--------------|-------------------|-------------------||--(0)--------------|--R- -|- -||--(5)--------------|--E- -|- -||--(5)--------------|--S- -|- -||--(3)--------------|--T- -|- -||-------------------|-------------------|-------------------|
17 18 19|-------------------|-------------------|---------------------------|||- -|- -|--<12>---------------------|||- -|- -|------------<12>-----------|||- -|- -|---------------------------|||- -|- -|---------------------------|||-------------------|-------------------|---------------------------||
Only guitar 3 plays the harmonics in the last bar; guitar 2 rests ================================================================================ Breakdown 2.3: Guitar 4 (Play once) ================================================================================ * Let notes ring wherever possible *
1 2||------------------------|------------------------|||--19--------------------|--19--------------------|||------------------------|------------------------|||--------16--------------|--------16--------------|||------------------------|------------------------|||--------------14--------|--------------14--------|
[Can I face tomorrow... with you? - etc.] 3 4|--------17----------------|--------17--------------||--15----------15----17----|--15----------15--------||--------------------------|------------------------||--------------------------|------------------------||--------------------------|------------------------||--------------------------|------------------------|
5 6|-------------------------|------------------------||--19---------------------|--19--------------------||-------------------------|------------------------||--------16---------------|--------16--------------||-------------------------|------------------------||------------14-----------|--------------14--------|
7 8|--------17----------------|--------17--------------||--15----------15----17----|--15----------15--------||--------------------------|------------------------||--------------------------|------------------------||--------------------------|------------------------||--------------------------|------------------------|
9 10|-------------------------|------------------------||--19---------------------|--19--------------------||-------------------------|------------------------||--------16---------------|--------16--------------||-------------------------|------------------------||------------14-----------|--------------14--------|
11 12 13|--------17----------------|--------17--------------|--------------------||--15----------15----17----|--15----------15--------|--------------------||--------------------------|------------------------|--------------------||--------------------------|------------------------|--14----------------||--------------------------|------------------------|--------------------||--------------------------|------------------------|--------------------|
14|-------------------|||-------------------|||-------------------|||--(14)-------------|||-------------------|||-------------------||
================================================================================ Lead Fill 3: Guitar 5 with Heavy Distortion (Play once) ================================================================================ This fill enters on bar 12 of Breakdown 2. * Let notes ring wherever possible *
||-----------------------||------------------------------|||--R- -<5>--||--<5>--------------------<7>--|||--E- ------||-----------<5>--<5>-----------|||--S- ------||------------------------------|||--T- ------||------------------------------|||-----------------------||------------------------------|
|---------------------------|----------------------------||--<7>----------------------|------------<7>-------------||-----------<7>--<7>--------|--<12>-------------<7>------||---------------------------|----------------------------||---------------------------|----------------------------||---------------------------|----------------------------|
|-------------------------|------------------------------||--<5>---------------<5>--|--<5>--------------------<7>--||-------------------------|-----------<5>--<5>-----------||-------------------------|------------------------------||-------------------------|------------------------------||-------------------------|------------------------------|
|-----------------------<5>----|-(5)---------------|||--<7>-------------------------|-------------------|||-----------<7>--<7>-----------|-(7)---------------|||------------------------------|-------------------|||------------------------------|-------------------|||------------------------------|-------------------||
================================================================================ Pre-Chorus 2.1: Guitar 1 (Play once) ================================================================================ * Let notes ring wherever possible *
[ Ain't I something?... I feel nothing]||------------------------|-------------------------|||------------------------|--0----------------0-----|||--0-------2-------0-----|--2-------2--------------|||--0------------------4--|--4-------------------2--|||--2----2----------------|--2----2-----2--2--------|||--3----3-------3--------|-------------------------|
[I could never hide]|-----------------------|--------------------------||--0--------------------|--------------------------||--0---------------0----|---------0----------------||--2-------4------------|--0 h 2-----0----0--0--0--||--2----2-------2-------|--------------------------||--0--------------------|--------------------------|
[Am I bluffin'?... Am I just denied?]|-------------------------|---------------------------||--1-------0 h 1--1-----|---------------------------||--0----------------0--0--|---------------------------||--2----2--------------0--|--5 h 7-----4--------7--4--||--0-------------------0--|--7------7--5--5--5--------||-------------------------|--0------------------------|
[Mirror...]|-------------------------------||--------------------|||-------------------------------||--------------------|||--11--11--11--9----11--11--12--||--12----------------|||--12--12--12--7----7---9-------||--------------------|||-------------------------------||--------------------|||-------------------------------||--------------------||
The last bar is also the first bar of Chorus 3 ================================================================================ Pre-Chorus 2.2/2.3: Guitars 2 & 3 play their respective parts of Pre-Chorus 1 ================================================================================ ================================================================================ Chorus 3.1: Guitar 1 (Play once) ================================================================================ Rest for 8 bars, and then play Chorus 1.1 once. Note: the lyrics for this part are printed in Guitar 2's riff. ================================================================================ Chorus 3.2: Guitar 2 (Play once) ================================================================================ * Let notes ring wherever possible *
[... mirror... I've lingered long] 1 2 3||--0------0------0--0--|--0------0------0--0--|--0------0------0--0--|||--0------1------1--1--|--0------0------0--0--|--0------0------0--0--|||--0------0------0--0--|--5------4------4--0--|--4------4------4--4--|||--2------2------2--2--|--7------7------7--7--|--5------5------5--5--|||--3------3------3--3--|--0------0------0--0--|--7------7------7--7--|||----------------------|----------------------|----------------------|
[long... Perchance to dream... the] 4 5 6|----------------------|--0------0------0--0--|--0------0------0--0--||--3------3------3--3--|--0------1------1--1--|--0------0------0--0--||--2------2------2--2--|--0------0------0--0--|--5------4------4--0--||--4------4------4--4--|--2------2------2--2--|--7------7------7--7--||--5------5------5--5--|--3------3------3--3--|--0------0------0--0--||----------------------|----------------------|----------------------|
[sweetest... dream... Mirror... Mirror] 7 8 9|--0------0------0--0--|----------------------|--------------------------||--0------0------0--0--|--3------3------3--3--|--0--0--0--0--0--0--0--0--||--4------4------4--4--|--2------2------2--2--|--4--4--4--4--5--5--5--5--||--5------5------5--5--|--4------4------4--4--|--5--5--5--5--5--5--5--5--||--7------7------7--7--|--5------5------5--5--|--3--3--3--3--3--3--3--3--||----------------------|----------------------|--------------------------|
[Reflect... this] 10 11|---------------------------|--------------------------||---------------------------|--------------------------||--7--7-(4 b5 r4)-----------|--------0--0--0--0--0--0--||--5--5--5------------2--2--|--5--5--5--5--5--5--5--5--||--0--0--0------------2--2--|--7--7--7--7--7--7--7--7--||---------------------0--0--|--0--0--0--0--0--0--0--0--|
[scream... for dreams... that] 12 13|-------------------------|--------------------------||-------------------------|--0--0--0--0--0--0--0--0--||-------------------0-----|--4--4--4--4--5--5--5--5--||--4-----4-----4----------|--5--5--5--5--5--5--5--5--||-----5-----5----------5--|--3--3--3--3--3--3--3--3--||-------------------------|--------------------------|
[long to be] 14 |--0--0--0
Tap to rate this tab
 
# A B C D E F G H I J K L M N O P Q R S T U V W X Y Z