Shes Long Gone tab ver. 3 with lyrics by Black Keys - Easy chords and tabs for guitar

Black Keys – Shes Long Gone tab ver. 3

Black Keys
She's Long Gone

Standard tuning
Gtr1 is main riff 
Gtr2 (lead)

h= hammer on
p= pull off
/= slide

Intro Gtr1|e--------------------0-----------------------|B--------------------0-----------------------|G--------------------------------------------|D--2-2-0-------0------------2-2-0-------0----|A-------h2-0-h2--h2--------------h2-0-h2--h2-|E-0-----------------3-0----0-----------------|
-0---------------------------------------------------|-0---------------------------------------------------|------------------------------------------------2-0--|-------2-2-0-------0------------2-2-0-------0------0-|------------h2-0-h2--h2--------------h2-0-h2--h2-----|3----0------------------3-0----0---------------------|
Pre-Verse Gtr1e---------------------0----------------------0--|B---------------------0----------------------0--|G-----------------------------------------------|D--2-2-0--------0------------2-2-0-------0------|A--------h2-0-h2--h2--------------h2-0-h2--h2---|E-0------------------3-0----0-----------------3-|
--------------------------------------------------|--------------------------------------------------|--------------------------------------------------|----2-2-0-------0-----------2-2-0-------0---------|--------h2-0-h2--h2--------------h2-0-h2--h2------|---0----------------3-0----0-----------------3-0--|
Pre-Verse Gtr2e------------------------------------------|B------------------------------------------|G------------------------------------------|D-14-14------12--------14-14-12-----14-12--|A------12-h14--14-12-----------h14-12------|E------------------------------------------|
--------------------------------------------------------|--------------------------------------------------------|---------------------------------------------12-h14-p12-|   -14-14-12-----------12-----------14-14-12-h14-----------|----------h14-12-h14--14-12-10--------------------------|--------------------------------------------------------|
Verse Gtr1e---------------------0----------------------0--|B---------------------0----------------------0--|G-----------------------------------------------|D--2-2-0--------0------------2-2-0-------0------|A--------h2-0-h2--h2--------------h2-0-h2--h2---|E-0------------------3-0----0-----------------3-|
-------------------------------------------------|-------------------------------------------------|-------------------------------------------------| x2----2-2-0-------0-----------2-2-0-------0--------|--------h2-0-h2--h2--------------h2-0-h2--h2-----|---0----------------3-0----0-----------------3-0-|
Verse Gtr2e-------------------------------------------------------------------------------------|B-----------------------------------------12bend-15bend-------------------------------|G-------------------------------------------------------------------------------------| x2D-------------------------------------------------------------------------------------|A-------------------------------------------------------------------------------------|E-------------------------------------------------------------------------------------|She's made to blow you away, and she don't care  what any man say.You can watch her strut,  but keep your mouth shut  or it's ruination day
Chorus Gtr1e----------------------------------------------|B----------------------------------------------|G----------------------------------------------|D----------------------------------------------|A----------------------------------------------|E--0-0--0-h3--3/5--5/7-7/5-5--0-0--0-h3--3-0---|
------------------------------------------------|------------------------------------------------|------------------------------------------------| x2------------------------------------------------|------------------------------------------------|--0-0--0-h3--3/5--5/7-7/5-5--0-0--0-h3--3-0-----|
Chorus Gtr2e----------------------------------------------|B----------------------------------------------|G----------------------------------------------|D--2-2--5-5--7-7--9-9-9/7-7---2-2--5-5--5-2----|A----------------------------------------------|E----------------------------------------------|
------------------------------------------------|------------------------------------------------|------------------------------------------------| x2----2-2--5-5--7-7--9-9-9/7-7--2-2--5-5--5-2-----|------------------------------------------------|------------------------------------------------|Well now she's long.... Long goneOh now she's long.... Yeah now she's long gone like moses through the corn
Pre-Verse Gtr1e---------------------0----------------------0---|B---------------------0----------------------0---|G------------------------------------------------|D--2-2-0--------0------------2-2-0-------0-------|A--------h2-0-h2--h2--------------h2-0-h2--h2----|E-0------------------3-0----0-----------------3--|
-------------------------------------------------|-------------------------------------------------|-------------------------------------------------|---2-2-0-------0-----------2-2-0-------0---------|-------h2-0-h2--h2--------------h2-0-h2--h2------|--0----------------3-0----0-----------------3-0--|
Pre-Verse Gtr2e------------------------------------------|B------------------------------------------|G------------------------------------------|D-14-14------12--------14-14-12-----14-12--|A------12-h14--14-12-----------h14-12------|E------------------------------------------|
--------------------------------------------------------|--------------------------------------------------------|---------------------------------------------12-h14-p12-|   -14-14-12-----------12-----------14-14-12-h14-----------|----------h14-12-h14--14-12-10--------------------------|--------------------------------------------------------|
Verse Gtr1e---------------------0----------------------0----|B---------------------0----------------------0----|G-------------------------------------------------|D--2-2-0--------0------------2-2-0-------0--------|A--------h2-0-h2--h2--------------h2-0-h2--h2-----|E-0------------------3-0----0-----------------3---|
-----------------------------------------------|-----------------------------------------------|-----------------------------------------------| x2--2-2-0-------0-----------2-2-0-------0--------|------h2-0-h2--h2--------------h2-0-h2--h2-----|-0----------------3-0----0-----------------3-0-|
Well her eyes, they're rubies and pearls and she's not made like those other girls Well her lashes flap   and they smack men back  like springs bouncing off of her curls
Chorus Gtr1e---------------------------------------------|B---------------------------------------------|G---------------------------------------------|D---------------------------------------------|A---------------------------------------------|E--0-0--0-h3--3/5--5/7-7/5-5--0-0--0-h3--3-0--|
-------------------------------------------------|-------------------------------------------------|-------------------------------------------------| x2-------------------------------------------------|-------------------------------------------------|---0-0--0-h3--3/5--5/7-7/5-5--0-0--0-h3--3-0-----|
Chorus Gtr2e----------------------------------------------|B----------------------------------------------|G----------------------------------------------|D--2-2--5-5--7-7--9-9-9/7-7---2-2--5-5--5-2----|A----------------------------------------------|E----------------------------------------------|
------------------------------------------------|------------------------------------------------|------------------------------------------------| x2----2-2--5-5--7-7--9-9-9/7-7--2-2--5-5--5-2-----|------------------------------------------------|------------------------------------------------|
Oh now she's long....   Long gone Na na na na now she's long....  Long gone like moses through the corn. Rock on.
Outro Gtr1e---------------------0----------------------0--|B---------------------0----------------------0--|G-----------------------------------------------|D--2-2-0--------0------------2-2-0-------0------|A--------h2-0-h2--h2--------------h2-0-h2--h2---|E-0------------------3-0----0-----------------3-|Outro Gtr2|
-------------------------------------------------|-------------------------------------------------|-------------------------------------------------| x4----2-2-0-------0-----------2-2-0-------0--------|--------h2-0-h2--h2--------------h2-0-h2--h2-----|---0----------------3-0----0-----------------3-0-|e--------------------------------------------------------------------------------------------|B--------------------------------------------------------------------------------------------|G------------NOT SURE WHAT GOES HERE. LISTEN TO THE SONG AND GET A FEEL FOR THE ENDING-------|   D---------------------------IT'S A LOT OF RANDOM SOLOING SO FEEL FREE TO --------------------| x4A-------------------------------------IMPROVISE FOR 4 MEASURES-------------------------------|E--------------------------------------------------------------------------------------------|
ALSO some of the Chorus parts for Guitar2 aren't exact, but it should sound good with everything going on :) The open B and e in the main riff for guitar 1 was weird at first for me, just l isten to the song for help on timing/
Please rate this tab:
x1.0