Black Sabbath - Behind The Wall Of Sleep tab

Artist:    Black Sabbath
Song:      Behind the Wall of Sleep
Album:     Black Sabbath / Past Lives
Tabbed by: xHellbound

Extra solo, woo!

..turn your body into a corpse..


h  - hammer-on
p  - pull-off
^  - bend
~  - vibrato
/\ - slide

Intro

|----------------------|----------------------||----------------------|----------------------||----8--8-8----7--7-7--|----8--8-8----7--7-7--||----9--9-9----7--7-7--|----9--9-9----7--7-7--||----9--9-9----7--7-7--|----9--9-9----7--7-7--||--7---------7---------|--7---------7---------| x2 The intro is strummed D U D U
|----------------------------|-----------------------------||----------------------------|-----------------------------||--------7--7-7p6------------|-----------------------------||-----------------9-9p7---7--|-----------7-----------------||--9-9------------------9----|--9-9--7/9---9\7--7-7p5---5--||--7-7-----------------------|--7-7-------------------7----| x2 Don't let these chords ring out
|----------------------|----------------------||----------------------|----------------------||----8--8-8----7--7-7--|----8--8-8----7--7-7--||----9--9-9----7--7-7--|----9--9-9----7--7-7--||----9--9-9----7--7-7--|----9--9-9----7--7-7--||--7---------7---------|--7---------7---------| x2
|------------||------------||------------||------------||--9----(9)--||--7----(7)--|
Verse
|-------------------|-------------------||-------------------|-------------------||-------------------|-------------------||-------5h7-5--5h7--|-------5h7-5-------||-------------------|--------------5h7--||--5--8-------------|--5--8-------------| x2
|------------------------||------------------------||------------------------||------------------------||--5-5----5h6p5----------||-------8-------8-5------|
|-------------------|-------------------||-------------------|-------------------||-------------------|-------------------||-------5h7-5--5h7--|-------5h7-5-------||-------------------|--------------5h7--||--5--8-------------|--5--8-------------| x2
|------------------------||------------------------||------------------------||------------------------||--5-5----5h6p5----------||-------8-------8-5------|
Bridge
|--------------|--------------||--------------|---------12---||---------7~~--|---------14^--||--------------|--------------||--7/9---------|--7/9---------||--5/7---------|--5/7---------|
Solo 1
|-----------------|--------------------------||--12-------------|--12-10-------------------||--14^--14^--14^--|--------11--9-11-9-9-/-\--||-----------------|--------------------------||-----------------|--------------------------||-----------------|--------------------------|
|----------------------------|--------------------7------||---------10-10-12^-12^-12~--|--12-10-----------7---10^--||--9-9h11--------------------|--------11\9--7-9----------||----------------------------|---------------------------||----------------------------|---------------------------||----------------------------|---------------------------|
|--7------------------------------------7------||----10p7-----------------------------7---10^--||---------9^p7-9p7---7-------------9^----------||------------------9---9p7-------7-------------||--------------------------9-7h9---------------||----------------------------------------------|
|--7--------------------------------------7----------------------||----10p7------------------10-----------7---10p7-------------7~--||---------9^p7-9-9^p7-9/11----11\9-7-9^----------9-9p7---7-9-----||------------------------------------------------------9---------||----------------------------------------------------------------||----------------------------------------------------------------|
|-----------------------------||--10p7-----------------------||-------9--9p7----------------||--------------9--9p7----7h9--||---------------------9-------||-----------------------------|
|------------------------------|-------------------||------------------------------|------------7------||------------------------------|-------------------||-6h7-6h7-6h7-6h7-6--4-4-4-4---|--6h7-6h7-6---7h9--||-------------------(9-9-9-9)*-|-------------------||------------------------------|-------------------| *Iommi has played it both ways
(Drums) Intro Riff
|----------------------|----------------------||----------------------|----------------------||----8--8-8----7--7-7--|----8--8-8----7--7-7--||----9--9-9----7--7-7--|----9--9-9----7--7-7--||----9--9-9----7--7-7--|----9--9-9----7--7-7--||--7---------7---------|--7---------7---------| x2
|------------||------------||------------||------------||--9----(9)--||--7----(7)--|
Verse
|-------------------|-------------------||-------------------|-------------------||-------------------|-------------------||-------5h7-5--5h7--|-------5h7-5-------||-------------------|--------------5h7--||--5--8-------------|--5--8-------------| x2
|------------------------||------------------------||------------------------||------------------------||--5-5----5h6p5----------||-------8-------8-5------| x2
Live Ending
|--------------------||--------------------||--5--7--8--7/(12)\--||--5--7--8--7/(12)\--||--------------------||--------------------| x3
|--------------------||--------------------||-----5--7-----------||--7--5--7--7/(12)\--||--7--------7/(12)\--||--------------------| x3
|--------------------||--------------------||--5--7--8--7/(12)\--||--5--7--8--7/(12)\--||--------------------||--------------------| x2
|---------------||---------------||--5--7--8--7~--||--5--7--8------||---------------||---------------|
Solo 2 - Listen for better rhythm
|--------------------------------------------||--------------------------------------------||--7h9-7\5-----------------------------------||----------7p5---5h7p5-5---------------------||--------------7---------7p5-5h7p5--------7--||----------------------------------8p5-3--5--|
|----------------------------------------------------||----------------------------------------------------||------5h7-8p7p5-------------------------------------||--5h7-----------7p5---5h7p5---5---------------------||--------------------7-------7---7\5-3h5p3-3------7--||--------------------------------------------5p3--5--|
|----------------------------||----------------------------||----5-7----5-8----5-9--9-9--||--7------7------7-----------||----------------------------||----------------------------| x3
|---------------------------------5h8p5-5---------------------||---------------------------5h8p5---------8p5-5---------------||----5h7-8p7p5--------5h7p5---------------------7p5-----------||--7------------7p5h7--------------------------------4h5p4-4--||-------------------------------------------------------------||-------------------------------------------------------------|
|------------------5-8p5-5-------------------------5h8p5-5/(17)--||----------5h8-5h8---------8p5-5-------------5h8p5---------------||--5p4h5-7-----------------------7p5-5h7p5-7---------------------||----------------------------------------------------------------||----------------------------------------------------------------||----------------------------------------------------------------|
|--5h8p5---------------------------------------5h8p5---------------------------------------||-------8p5h8-----------------------------5h8p5-----5h8p5----------------------------------||-------------7p5h7-5h7p5-5----------5h7p5---------------5h7p5-5h7p5-5---------------------||---------------------------7p5-5h7p5----------------------------------5h7-5h7p5-5/(17)-5--||------------------------------------------------------------------------------------------||------------------------------------------------------------------------------------------|
|----------------------------||----------------------------||----------------------------||--5h7-5h7-5h7-5h7--5h7p5----||-------------------------7--||----------------------------| x4
Live Riff
|--------------------||--------------------||--5--7--8--7/(12)\--||--5--7--8--7/(12)\--||--------------------||--------------------| x3
|--------------------||--------------------||-----5--7-----------||--7--5--7--7/(12)\--||--7--------7/(12)\--||--------------------| x3
|--------------------||--------------------||--5--7--8--7/(12)\--||--5--7--8--7/(12)\--||--------------------||--------------------| x2
|---------------||---------------||--5--7--8--7~--||--5--7--8------||---------------||---------------|
Outro Riff
|--------------------------------------------||--------------------------------------------||--7h8p7p5-----------------------------------||----------7p5-5h7p5---5---------------------||--------------------7---7\5-3h5p3-3------7--||------------------------------------5p3--5--|
Tap to rate this tab
 
# A B C D E F G H I J K L M N O P Q R S T U V W X Y Z