Black Sabbath - Never Say Die tab

I just got this album a couple days ago and think it's pretty underated.-----------------------------------------------------------------------------|-----------------------------------------------------------------------------|Never Say Die!Black Sabbath - Never Say Die (1978)
|-----------------------||-----------------------||--2---4---7---2--------||--2---4---7---2--------||--0---2---5---0--2p0---||--------------------3^-|
|-------------------------------------------------------||-------------------------------------------------------||-------------------------------------------------------||-------------------------------------------------------||-3-----------------3-3-----2-2-----0-0-----------------||-1-----------------------------------------3-3-----1-1-|
|--------------------------------------||--------------------------------------||--------------------------------------||-------------------------0-0-----2----||-3-3-----2-2-----3-3---------------3--||--------------------------------------|
|--------------------------------------||---|---|---|---||--------------------------------------||---|---|---|---||--------------------------------------||---|---|---|---||--------------------------------------||---|---|---|---||-3-3-----2-2-----0-0------------------||---|-0-|-2-|-3-||-------------------------3-3-----1-3--||---|---|---|---|
|-------------------------------------------||-12--------12--------10--------10----------||----12---------12-------10--------10-----o-||-------12--------12--------10--------10--o-||-------------------------------------------||-------------------------------------------|
|-------0------------0-----------------------------------||-----0----0-------0----0----------7-------7-----7-------||---5--------5---5--------5------7----7------7------7----||------------------------------7--------7------7------7--||-0--------------------------5---------------------------||--------------------------------------------------------|
solo:|-----------------------------------------------||----------------------------------5h8p5-----5--||-9p7--7--------------------5--7^--------7^-----||----10-10p9-10p9p7-9-7~~-----------------------||-----------------------------------------------||-----------------------------------------------|
|--------------------------------------------------||-5h8p5--5h8---------------------------------------||------7^---5-7-5----------------------------------||------------7---7/17\7------7-7------7-h-9--9^-9^-||-----------------------5-7/9------7h9-------------||--------------------------------------------------|
|------------------------------------------------------8-10-||----------------------5h8-5---5h8-5-----5h8-5---5h8/10-----||---------------7^~~~-------7^------7-7^------7^------------||-9^-9^97-7-------------------------------------------------||--------9--------------------------------------------------||-----------------------------------------------------------|
|-10p8--8-8--------------------------|-----------------------||-----10---10\8\7p5------------------|-----------------------||------------------7p5-7p5-----------|------------5h7-7p5h7--||---------------------7---7^~~~/(14)-|--------567------------||------------------------------------|---3/5-7---------------||------------------------------------|-5---------------------|
|--------------------------|------------------------||-----5-8p5h8--------------|------------------------||-5h8---------7p5h7p5-5----|------------------------||--------------------7-7p5-|-7p5--------------------||--------------------------|----7\5p3---5p3---5p3---||--------------------------|----------5-----5-----5-|
|------------------------------------------------------------------||------------------------------------------------------------------||------------------------------------------------------------------||------------------------------------------------------------------||------------------------------------------------------------------||-5------5---p---/12------5------5---p---/12----5------5---p---/12-|
Johnny Blade Black Sabbath - Never Say Die (1978)
|----------------------------------------------------------||----------------------------------------------------------||----------------------------------------------------------||------3--------------3--------------3---------------------||----------2p1------------2p1------------2p1---------------||-1--1---1-----3-1--1---1-----3-1--1---1-----3-1-----------|
|----------------------------------------------------------||----------------------------------------------------------||-3--1--1-/3----------------3--1--1-/3---------------------||-3--1--1-/3----------------3--1--1-/3---------------------||--------------------2p1-----------------------------------||-------------1--1-1-----3---------------------------------|
|----------------------------------------------------------||----------------------------------------------------------||----------------------------------------------------------||------5--------------5--------------5---------------------||----------4p3------------4p3------------4p3---------------||-3--3---3-----5-3--3---3-----5-3--3---3-----5-3-----------|
|----------------------------------------------------------||----------------------------------------------------------||-5--3--3-/5----------------5--3--3-/5---------------------||-5--3--3-/5----------------5--3--3-/5---------------------||--------------------4p3-----------------------------------||-------------3--3-3-----5---------------------------------|
johnny blade..|----------------------------------------------------------||----------------------------------------------------------||----------------------------------------------------------||-7---------7---10--12------7--------7---10--12------------||-7---------7----8--10------7--------7----8--10------------||-5---------5---------------5--------5---------------------|
|----------------------------------------------------------||----------------------------------------------------------||----------------------------------------------------------||-777766664444------777766664444---------------------------||-5555444422227777--5555444422222222-----------------------||-------------5555--------------0000-----------------------|
|----------------------------------------------------------||----------------------------------------------------------||----------------------------------------------------------||----------------------------------------------------------||---------------------3p2-----5-5-5-5-3-5---5-5h6-5p3------||-3/5-5-5-3-5---5-3-5-----5p3-------------------------5p3--|
he's the one...|----------------------------------------------------------||----------------------------------------------------------||-----------------7----------------------------------------||-7------5--------7------7---------------------------------||-7------5--------5------7---------------------------------||-5------3---------------5---------------------------------|
|-------------------------------------------------------------||-------------------------------------------------------------||-------------------------------------------------------------||---------------------7-10--7-------------77777777---7-10--7--||-55555555-44444444---7-10--7----55555555-55555555---7-10--7--||-33333333-22222222---5--8--5----33333333------------5--8--5--|
Solo:|----------------------------------------------------------||---------------8^---9^--8-5-------------------------------||--7^^^p5--------------------7-----------------------------||---------7--------------------7------7-5------------------||-----------------------------------------7-7\5-3-5^-5-----||----------------------------------------------------------|
|----------------------------------------------------------||----------------------------------------------------------||------------------------------------------------5-4-5-7---||----7-5-------------------------------------5-7-----------||---------7-5---3-5-5^-3-5^-3----3-2-3-3/5-7---------------||-5----------------------------5---------------------------|
|--------------------------------------------5-------------||-------------------------------8^---8----8^----8-5-5------||-5-7^-5-7^-5-7^-5------------------------------------7-5--||------------------7~~~------------------------------------||----------------------------------------------------------||----------------------------------------------------------|
|--------------------------------------8-------------------||----------------------------------------------------------||-7^-7^p5-7^-7^p5-7^-7^p5-7^-7^p5--7^----^7----------------||----------------------------------------------------------||----------------------------------------------------------||----------------------------------------------------------|
|----------------------------------------------------------||-5--5--5----8---8---8---10--10--10---13---17--------------||-7^-7^-7^--10^-10^-10^--12^-12^-12^--15^--19^-------------||----------------------------------------------------------||----------------------------------------------------------||----------------------------------------------------------|
|----17h20p17----17h20p17-|----20p17----20p17----20p17------||-17----------17----------|-17-------17-------17------------||-------------------------|---------------------------------||-------------------------|---------------------------------||-------------------------|---------------------------------||-------------------------|---------------------------------|
|-----5--\----5--\-----------8------------------8------------||-----8^-\----8^-\-----8/10-----------------------5--5--5----||------------------------------7\5-5^^----7-7^----7^-7^-7^---||-------------------------------------7-7--------------------||------------------------------------------------------------||------------------------------------------------------------|
|--------8-10-10^---------------15^---------8-10^^8-----8----||--8/10-------------------13-15-------8/10-----------10------||-------------------12/14------------------------------------||------------------------------------------------------------||------------------------------------------------------------||------------------------------------------------------------|
|------5----------------------------------------------------||---------8-------------------------------------------------||-7^^-------7^^p5---------------------5---------------------||-----------------7--------------7--7---7-------------------||---------------------7-7-7/9--7----------------------------||-----------------------------------------------------------|
|----------------------------------------------------------||--------8/10-8----------------------5-/10\--8/10\--8/10\--||----------------7-5-7^-7^p5-----5-7-----------------------||-5/7-7----------------------5-7---------------------------||----------------------------------------------------------||----------------------------------------------------------|
|----8-----------------------------------------------------||----------------------------------------------------------||-7^----7^p5----5--7p5-7p5-7p5-7p5-----7^-7^~~~------------||------------7---7-----------------7-----------------------||----------------------------------------------------------||----------------------------------------------------------|
|----------------------------------------------------------||----------------8^--8-5-----------------------------------||-7^-7-5-7---------------7-5-------------------------------||----------------------------5-7\--------------------------||----------------------------------------------------------||----------------------------------------------------------|
Junior's Eyes Black Sabbath - Never Say Die (1978)
guitar:(w/ wah) h--------- h------------||---7~~~~~~~~~----------12\~~~~~~~----||---8-------------------12\-----------||---9-------------------12\-----------||-------------5h7p5-------------------||-------------------7\----------------||-------------------------------------|
chorus: |---------1,2,+3-----------------||---------------------------------------------||----------||---------------------------------------------||----------||---9----9-9-9---7--5-5--5-5-5-5--------------||-5-4--7---||---9----9-9-9---7--5-5--5-5-5-5--------------||-5-4--7---||---7----7-7-7---5--3-3--3-3-3-3--0-2p0---2---||-3-2--5---||-0----0--------0--0----0---------------3---0-||----------|
|---------------------------------------------------------||---------------------------------------------------------||-----14----14--12---------------14----14--12--9--7-------||-----14----14--12---------------14----14--12--9--7-------||----------------------5-6-7------------------------------||-0-0----0-0---0-------------0-0----0-0---0---------5-6-7-|
solo: b-r|----15---------------------15-17-17^--17^--17^^17----||-15^--15^-15^^15-----15-17------------------------15-||-----------------------------------------------------||-----------------------------------------------------||-----------------------------------------------------||-----------------------------------------------------|
|------------------------------------------------12---------||-15^^^^^^^^^^^^^^^^^15\---------------------------15p12-15-||-------------------------------------------14^-------------||-----------------------------------------------------------||-----------------------------------------------------------||-----------------------\10-10h12~~~~~~---------------------|
b r|---------------------------12-------------------------||--12-15-----------------------15-12-------------------||--------14161412-14^----14^---------161412 14^12~~~~~-||------------------------------------------------------||------------------------------------------------------||------------------------------------------------------|
|--------------------------------------------------------------||-------------------5^---5^--3-5p3~~~~~-----3-5^--5^-5353 3~~~-||-----4--2-2~~~~~-----------------------2h4--------------------||-2------------------------------------------------------------||--------------------------------------------------------------||--------------------------------------------------------------|
|----------------------------------------------------||-----3--------------------------------------5~~~~~--||-2h4---2-0-^2-0------2-4~~~~---2p0-------/4---------||----------------2--5---------------2---5------------||----------------------------------------------------||----------------------------------------------------|
|------------------------------------------||----3--------------------------5~~~~~~~~--||-/4----------2--^2-2~~~~~---4-------------||------2---5-------------------------------||------------------------------------------||------------------------------------------|
hers the end: E5 D5 G5/D E5 C5 D5 E5 A Hard Road Black Sabbath - Never Say Die (1978)
|------------------------|------------------------||------------------------|------------------------||------------------------|------------------------||------------------------|------------------------||-2--2--2--2--2--2--2--2-|-2--2--2--2--2--2--2--2-||------------------------|------------------------|
|----------------------|----------------------------||--------------2--4-4--|--------2--4-4--------------||-------4p2----2--4-4--|-4p2----2--4-4--4p2---------||-----------4----------|-----4--------------4-------||-2--2-----------------|----------------------2--2--||----------------------|----------------------------|
chorus:"oh its hard road..."|-----------------------------------||-----------------------------------||-4--4--4-4--4-4--4-4--2--2--2-2-9--||-4--4--4-4--4-4--4-4--2--2--2-2-9--||-2--2--2-2--2-2--2-2--0--0--0-0-7--||--------------------------------0--|
|------------------------------------------------||---------------------------------2---4-4---4-4--||----------------------------4----2---4-4---4-4--||-4-4-/6-4---4--4-4-/6-4-4/6---4--2---4-4---4-4--||------------------------------2-----------------||------------------------------------------------|
|------------------------------------------------||---------------------------------2---4-4---4-4--||---------------------------------2---4-4---4-4--||-4-4-/6-4------4-4-/6-4--2-4--4--2---4-4---4-4--||------------------------------2-----------------||------------------------------------------------|
solo:|------------------------------------------------||-2-3-2-----------5-4-2---------------2-3-2------||-------4~~~~----------2---2-2-2~~~---------4~~--||------------------------4-----------------------||------------------------------------------------||------------------------------------------------|
|--7---7-----7---7----------------10--10----10--10--||-10^-10^---10^-10^---5-3-2-------13^-13^---13^-13^-||--------------------------2---2--------------------||----------------------------4----------------------||---------------------------------------------------||---------------------------------------------------|
|--7---7---7---7---------------------------------------||-10^-10^-10^-10^--------------------------------------||---------------------------------4-4---4-4---4-6^-6-4-||-----------------------------/4h6---4h6---4h6---------||------------------------------------------------------||--------------------7-5--5h7--------------------------|
b r r|-------------------------------------------||----5-6-7----------------------------------||-6^-------4--6-4-6864-6---4-6p4-7^^^6-4-4--||------------------------6------------------||-------------------------------------------||-------------------------------------------|
|-----------7~~\\---------7~~\\---------------------||-------7-9-----------7-9---------------------------||-4-6/8------------/8-----------7^6^-4-4-6-8^6^-4-4-||---------------------------------------------------||---------------------------------------------------||---------------------------------------------------|
|-------------------------------------------------||-----7-----------7-----------7-----------7-------||-6/8---8\6-4-6/8---8\6-4-6/8---8\6-4-6/8---8\6-4-||-------------------------------------------------||-------------------------------------------------||-------------------------------------------------|
|------------------------------------------------------||-3/5-5^5^5^5^5^5^----5-5------5------3----------------||------------------6^-----6^-4---6^-4--4-2-------------||-----------------------------------------4-3-2-2------||----------------------------------------------5-5-4-2-||------------------------------------------------------|
Shockwave Black Sabbath - Never Say Die (1978)
fig 1|-----------------------------------------------------------------||-----------------------------------------------------------------||-------5-5---------3--3/----------5-5---------3-------3----------||-------5-5---1-1p0-3--3/--3h4p3---5-5---1-1p0-3-3-4-5-3----------||---1-2-3-3---------1--1/--------6-3-3---------1-3-4-5-1----------||-3----------------------------------------------1-2-3------------|
fig 2|---------------------8-8-8-----------------------8-8-8------------------||---------------------8-8-8-----------------------8-8-8------------------||--------8-8\---8-8\--8-8-8----------8-8\---8-8\--8-8-8------------------||------8-8-8\---8-8\---------------8-8-8\---8-8\----------------------8--||-8h10------------------------8h10------------------------8-7-6-8-7-6-8--||---------------------------------------------------------------------6--|
fig 3|----------------8-8-8-------------------8-8-8------||----------------8-8-8-------------------8-8-8------||----------10-8--8-8-8-------------10-8--8-8-8------||-10-10-10-10-8-----------10-10-10-10-8-------------||-10-10-10--8-6-----------10-10-10--8-6-------------||--8--8--8-----------------8--8--8------------------|
fig 4|-----------------------------------------------------------------||-----------------------------------------------------------------||-5-5-3-5-3-5---3---2------5-5-3-5-3-5---3---2--------------------||-5-5-3-5-3-5---3---2---5--5-5-3-5-3-5---3---2---5----------------||-3-3-1-3-1-3---1---0---5--3-3-1-3-1-3---1---0---5----------------||-----------------------3------------------------3----------------|
|------------------------------------------|--------||------------------------------------------|--------||-7-7-5-7-5-7---5---4---2--7-7-5-7---------|-5-5--2-||-7-7-5-7-5-7---5---4---2--7-7-5-7-5-4-3---|-5-5--2-||-5-5-3-5-3-5---3---2---0--5-5-3-5-5-4-3---|-3-3--0-||----------------------------------3-2-1---|--------|
fig 5|----------------------------------------------------------||----------------------------------------------------------||--12--11--12-----12--11--12-12/14-------------------------||--12--11--12-----12--11--12-12/14-------------------------||-----------------------------------0--0-------------------||----------------------------------------------------------|
fig 6 ...freeze your life in time...|--------------------------7-------||-------------------------||---------6--5--------10---8-------||-------------------------||--7------5--4--7------9---0-------||----5-5-5-5-5-5----------||--7------3--2--7------7--(0)------||----5-5-5-5-5-5----------||--5------------5------------------||----3-3-3-3-3-3----------||----------------------------------||-------------------------|
fig 7|--0-0-0-----------||--2-2-2---3-------||-0-0-0---2-------------||--0-0-0----2------||--3-3-3---1-------||-0-0-0---3-------------||--1-1-1----3------||--2-2-2---0-------||-1-1-1---2-------------||--2-2-2----4------||--0-0-0---2-------||-2-2-2---0-------------||--2-2-2----4------||----------3-------||-----------------------||--0-0-0----2------||------------------||-----------------------|
|| || |||------------------||------------------||--------------------||------------------||------------------||--------------------||--9-9-9---11-(x 4)||--7-7-7---5-(x 2)-||-9-9-9---7--(x 2)---||--9-9-9---11------||--7-7-7---5-------||-9-9-9---7----------||--7-7-7----9------||--5-5-5---3-------||-7-7-7---5----------||------------------||------------------||--------------------|
fig 8|----------------------------|-----------------------------||----------------------------|-----------------------------||-12p9------------------9----|--^9-------------------------||------12-10-9h10-12p10---12-|-----10p9-7----/9-7~---------||----------------------------|-----------------------------||----------------------------|-----------------------------|
fig 9 w/solo|-----------------||--------------------------------------------------||-----------------||--------------------------------------------------||-^7-5------5-----||--------------------------------------------------||---------7---7---||------------------------------------------------2-||-----------------||--5/7--5-7--5--------------5/7--5-7--5------------||-----------------||--------------7-6-5-3p0-0--------------7-6-5-3p0--|
Don't expect me to tab that damn solo.
fig 10|-----------------|----------------------|------------------||--------^6-------|----------------------|---------^6-------||--^7-5-----------|------/9-7-5-7-5------|------^7----------||-----------7^-7--|--7-5------------7^-7-|-7-5--------^7--7-||-----------------|----------------------|------------------||-----------------|----------------------|------------------|
Air Dance Black Sabbath - Never Say Die (1978)
|----------------------------------------------------------||-10/13-13----------13-13--10-10---10/13-13--------13--10--||-----------10--12---------------------------10-12---------||----------------------------------------------------------||----------------------------------------------------------||----------------------------------------------------------|
| ||----------------------------------------------------------||----------------------------------------------------------||------------------5--5--------------------------5---------||--7/10-10--3---5--5--5--7--7----7/10-10--3--5---5--7------||--7/10-10--3---5--3--3--7--7----7/10-10--3--5---3--7------||--5/-8--8--1---3--------5--5----5/-8--8--1--3------5------|
|-------------0-----------------0-----------||-----3---(6)---6-------3---(6)---6---------||---2---2/-5------5---2---2/-5------5-------||-0-----------------0-----------------------||-------------------------------------------||-------------------------------------------|
|----------------------------------------------------||----------------------12------------------------12--||-13\12-10--13\12-10---12---13\12-10--13\12-10---12--||-13\12-10--13\12-10--(12)--13\12-10--13\12-10--(12)-||----------------------------------------------------||----------------------------------------------------|
1st time:|-10----------10------------10-----------------------------||---13-10-13^---13-10----10----13^-10----------------------||---------------------12--------------12^--10-12-----------||----------------------------------------------------------||----------------------------------------------------------||----------------------------------------------------------|
|------------------------------------||------------------------------------||-10\9--------9-10-12-10-12-12/14----||----------12------------------------||------------------------------------||------------------------------------|
2nd time:|-10--------10---------------------------------------------||----13-13-------------------------------------------------||--------------12-12--10-12^-12----12-10---10--------------||----------------------------------------12---12-10-9------||----------------------------------------------------------||----------------------------------------------------------|
"away......away..."|-15--------------------------------------------||----------------------------15--16-------------||-12--14--16-------------------------14-/-16----||----------------------------12--13-------------||-----12--14-------------------------12-/-14----||-----------------------------------------------|
|-------------------------------------------------||-------------------------------------------------||-14-12-(11)-12--11h12p11---11-12-11-12-14--------||------------------------------------------12-14--||-------------------------------------------------||-------------------------------------------------|
|---------------------------------------------||---------------------------------------------||----11-12p11---------11-12p11-12-14----------||-------------------------------------12--14--||-14---------------14-------------------------||---------------------------------------------|
|---------------------------------------------------------------------||---------------------------------------------------------------------||-14/16-16-16----------16-16-16----------14-14-14-------11-12-11------||-------------14-14-14----------14-14-14----------12-12----------14---||---------------------------------------------------------------------||---------------------------------------------------------------------|
|--------------------------------------------------------------------||--------------------------------------------------------------------||-14/16-16-16----------16-16-16----------14-14-14-------11-12-11-----||-------------14-14-14----------14-14-14----------12-12----------14--||--------------------------------------------------------------------||--------------------------------------------------------------------|
|-----------------------------------------------------------------||-----------------------------------------------------------------||-------------------------------------12-10-9----9-10-12-12/14-12-||-12-10-9-----9-10-12--10-9-----10-12---------12------------------||---------12----------------12------------------------------------||-----------------------------------------------------------------|
|--------------------||-------12-----------||-12h13----12h13-----||----------------14--||--------------------||--------------------|
|----------------------------------------------------------||----------------------------------------------------------||-------------5--7-----7^7--5--------------5--7--5h7p5-----||--7--7--7----5--7-----7^7--5---7--7--7----5--7--5h7p5-----||--7--7--7----------------------7--7--7--------------------||----------------------------------------------------------|
Keyboard: arr. for guitar:|-------------------------------------------------------------||---------------6-----5-----6-----------------6-----5-----6---||---7-----5-------5-----5-----5---7-----5-------5-----5-----5-||-----7-----7-----------------------7-----7-------------------||-5-----5-----5-----5-----5-----5-----5-----5-----5-----5-----||-------------------------------------------------------------|
Over To You Black Sabbath - Never Say Die (1978)
|-----------------|-----------------------------------------||-----------------|-----------------------------------------||-----------------|-4-4--4-4-4------------------------------||-----------------|-2-2--2-2-2-4-4--4-----------------------||-2-2-2-2-2-2-2-2-|------------2-2--2-----------------------||-----------------|-----------------------------------------|
|----------------------------------------------------------||----------------------------------------------------------||-----2---2-----2-----4-----4---4--------------------------||-----2---2-----2-----4-----4---4--------------------------||-2-2---2---2-2---2-2-----2---2----------------------------||----------------------------------------------------------|
|----------------------------------------------------------||---------------3------------------------------------------||-----2---2-----2--2--4--4---4-----------------------------||-----2---2--------2--4--4---4-----------------------------||-2-2---2---2-2------------2-------------------------------||----------------------------------------------------------|
"Traveling endlessly Im searching my mind, F# B F# B Im almost afraid of what I might find" G A B
|---------5/7--5-----5/7--5--5/7---------------------------||---------3/5--3-----3/5--3--3/5---------------------------||---------2/4--2-----2/4--2--2/4---------------------------||-2h4----------------------------2h4-----------------------||-----2-2--------2-2-----------------2-2-------------------||----------------------------------------------------------|
|---------------------------------------------||--------------------------3------------------||--------------2-----------2-2/4--4-----------||--------------2-------------2/4--4-----------||-----2---------------------------------------||-2h4---4-2h4---------------------------------|
|
|----------------------------------------------------------||--------------------------3-------------------------------||------------------2-2-----2--2---4-4----------------------||------------------2-2--------2---4-4----------------------||--------------2-2-----2-2------------2-2------------------||----------------------------------------------------------|
Breakout Black Sabbath - Never Say Die (1978)
|----------------------------------------------------------||----------------------------------------------------------||----------------------------------------------------------||-----------2--------------------------2-------------------||--2--4--5-------2------------2--4--5-------2--------------||----------------0--------------------------0--------------|
|--------------------------------||--------------------------------||--------------------------------||----------2----------7--5~~-----||-2--4--5-------2----------------||---------------0----------------|
|----------------------------------------------------------||----------------------------------------------------------||----------------------------------------------------------||------------2--5--4-----7--4-------------------2----------||---2--4--5-----------5--------5--7----2--4--5-------2-----||----------------------------------------------------0-----|
Swinging The Chain Black Sabbath - Never Say Die (1978)
|-------------------------------------------------------------------||-------------------------------------------------------------------||------------------------------2-2-----------------------------2-2--||------------------------------2-2-----------------------------2-2--||--3-0-----0-3~~-------0---0----------3-0-----0-3~~-----0---0-------||------3-3---------------3----------------3-3-------------3---------|
|----------------------------------------------------------||----------------------------------------------------------||---7----/9--5--2----------7---7/9---2---------------------||---7----/9--5--2----------7---7/9---2---------------------||---5----/7--3--0----------5---5/7---0---------------------||----------------------------------------------------------|
|----------------------------------------------------------||----------------------------------------------------------||-----------------------------------------5^--5------------||-----------------------------------------5^--5------------||--1-------1---------1----1-------1------------------------||----3-1-3---3-1-3----------3-1-3---3-1--------------------|
|----------------------------------------------------------||----------------------------------------------------------||---------------5--7-----------------5-5-5-----------------||-----------5---5--7-------------5---5-5-5-5---------------||-----5h6h7----------------5h6h7-----------5---------------||---5---------5----------5---------5-----------------------|
Tap to rate this tab
 
# A B C D E F G H I J K L M N O P Q R S T U V W X Y Z