Black Sabbath - Embryo tab

Black Sabbath - Embryo

None of the tabs for embryo seemed right they all just didnt sound like the original
so i took the time to figure out the real version and tab it enjoy - Jordan


|--0---0---0---0---0---0---0----0----||------------------------------------||------------------------------------||--2---4---5---4---2h4-5p4-2----2p0--||------------------------------------||------------------------------------|
|--0---0---0---0---0----0----0----0-0--||--------------------------------------||--------------------------------------||--5---7---9---7---5h7--5p4--2----2p0--||--------------------------------------||--------------------------------------|
|--0---0---0---0---0---0---0----0------||--------------------------------------||--------------------------------------||--9---7---5---4---2h4-5p4-2----2p0----||--------------------------------------||--------------------------------------|
|--0---0---0---0---0---0---0----0----||------------------------------------||------------------------------------||--2---4---5---4---2h4-5p4-2----2p0--||------------------------------------||------------------------------------|
|--0---0---0---0---0---0---0----0----||------------------------------------||------------------------------------||-14--12---9--12---7h9-5p4-2----2p0--||------------------------------------||------------------------------------|
|--0---0---0---0---0---0---0----0----||------------------------------------||------------------------------------||--2---4---5---4---2h4-5p4-2----2p0--||------------------------------------||------------------------------------|
|--3---2---0---0---0---0---0----0----||------------------------------------||------------------------------------||--0---0---0---2---2h4-5p4-2----2p0--||------------------------------------||------------------------------------|
|--7---5---3---0---0---0---0--------||-----------------------------------||-----------------------------------||--5---4---2---0---2h4-5p4-2--------||-----------------------------------||-----------------------------------| ^ slow down here
Tap to rate this tab
 
# A B C D E F G H I J K L M N O P Q R S T U V W X Y Z