Black Sabbath - Neon Knights tab

song: "Neon Knights"
artist: Black Sabbath
album: Heaven and Hell
transcribed by: me

okeedokers i saw none of you fools had this song on here so i stuck it on. you can listen
to it and just about any other sabbath song at www.klubmp3.com. when it asks you for
authorization just type in guitarloser23@yahoo.com for the e-mail address and jhonen for
the password. listen to the song crumbum.

|-----------------------------------||-----------------------------------||-----9-----9---9-------------------||-----9-----9---9-------------------||-----7-----7---7----------------9--||-0-0-0-0-0-0-0-0-0-0-0-0-0-0-10----|
|----------------------------------------------------||----------------------------------------------------||-7-------------7------9-----9---9-------------------||-7--11--9--11--7------9-----9---9-------------------||-5--11--9--11--5------7-----7---7----------------9--||----9---7--9------0-0-0-0-0-0-0-0-0-0-0-0-0-0-10----|
circles and rings....|---------------------------------------------||---------------------------------------------||-2--------5--------7-------------------------||-2--------5--------7-------------------------||-0--------3--------5--------3-2-0---3-2-0----||----------------------------------3-------3--|
|-------------------------------------||-------------------------------------||-2--------5--------7------------7-9--||-2--------5--------7--------5-5-7-9--||-0--------3--------5--------5-5-5-7--||----------------------------3-3------|
bloody angels...|-----------------------------------------------------||-----------------------------------------------------||-7--7-7--5-5-4----7--7-7--5-5-4-5--2--5p4-2-------2--||-7--7-7--5-5-4----7--7-7--5-5-4-5--2--5p4-2-------2--||-5--5-5--3-3-2----5--5-5--3-3-2-3--0--------0-3h4-0--||-----------------------------------------------------|
|---------------------------------------------------------||---------------------------------------------------------||-2----5p4--2----------2----5p4--2----------2-------------||-2----5p4--2----------2----5p4--2----------2-------------||-0------------0--3h4--0------------0--3h4--0-------------||---------------------------------------------------------|
solo:|---------------------------------------------------------||-15^------15-12----------12-------------12---------------||----------------14-14-------12-12----14----14~~-12-------||---------------------------------------------------14-14-||---------------------------------------------------------||---------------------------------------------------------|
|------------------------------------------------------||------------------------------------------------------||-12---------------------12---------12-----------------||----14-14~~--12--12---14--14~~-------14-12--14-12--12-||---------------14-------------------------14-----14---||------------------------------------------------------|
|------------------------|----------------------------------||------------------------|----------------------------------||------------------------|----------------------------------||-------------9----------|-------------9--------------------||-14p12-10-12---12-10-12-|-10-12-10-12---12-10--------------||------------------------|---------------------12~~~--------|
|---------|--------------------|---------------------|---------|---------|--------------------|------------------10-|---------|---------|--------------------|-9-12p11-9--11-12----|-12-11-9-|---------|---------------9-12-|---------------------|---------|-------9-|-10-12--10-12-------|---------------------|---------|-10-12---|--------------------|---------------------|---------
b release----------|-17^~~~~~~~~~~~-|-19^^^^^^^^17-|-19^17-19^17-19^17-|----10-12-|----------------|--------------|-------------------|-12-------|----------------|--------------|-------------------|----------|----------------|--------------|-------------------|----------|----------------|--------------|-------------------|----------|----------------|--------------|-------------------|
|-19^17-19^17--|-19^17-14-15------|---12-15-12~~--||--------------|------------17~~--|-15------------||--------------|------------------|---------------||--------------|------------------|---------------||--------------|------------------|---------------||--------------|------------------|---------------|
|-12----------------------|----------------------|----------|---15-12---15-15p12---12-|----------------------|----------|--------14^--------14----|-15-14-12----14-12----|----------|-------------------------|----------14-------14-|----------|-------------------------|----------------------|----------|-------------------------|----------------------|----------
|-----------------------------|--------------------------||-----12-15----12-------------|--------------------------||-14^-------14----14-14p12----|-12-----------------------||--------------------------14-|----14-12----14-12----12--||-----------------------------|----------14-------14-----||-----------------------------|--------------------------|
|-----------------------|-----------------|--------------------------||-----------------------|-----------------|--------------------------||-----------------------|-----------------|--------------------------||-----------------------|-----------------|---------------7h9--------||-14-13-12-10---12-10-9-|-10-9------9-----|-7-9-10p9-7-10-----10p9-7-||-----------------------|------12-----10--|--------------------------|
|---------------------------------15p14-|-12------12-----------------------||------------------------------12-------|----12h15--15p12--121512-12-------||----------------------12h14p12---------|----------------14---------141214-||----------12h14p12--14-----------------|----------------------------------||-10h12/14------------------------------|----------------------------------||---------------------------------------|----------------------------------|
|----------------------------------------|---------------------------------||----------------------------------------|---------------------------------||-13h14p12--12---------------------------|---------------------------------||---------14--14p12--14p12---------------|---------------------------10h12-||------------------14-----14p12\10h12p10-|--------------9-1012101214-------||----------------------------------------|-121012-10h12--------------------|
|----------------14-12-14-12h14-14/17-|-17\15-12-17/19-17-15-15/19-||----------15p12----------------------|----------------------------||----121412---------------------------|----------------------------||-14----------------------------------|----------------------------||-------------------------------------|----------------------------||-------------------------------------|----------------------------|
|-17-15-17/19-17-15-17-|-17p15---17p15---17p15---15p12--12-||----------------------|------17------17------17------15---||----------------------|-----------------------------------||----------------------|-----------------------------------||----------------------|-----------------------------------||----------------------|-----------------------------------|
|------------------15-|---15p12---15p12--12--------------------||-12---------15p12----|--------15------15--15p12-12-15p12---12-||---14121412----------|----------------------------------14^---||---------------------|----------------------------------------||---------------------|----------------------------------------||---------------------|----------------------------------------|
|------------------------------------------||------------------------------------------||-14p12-14-14p12---------------------------||---------------14p12-14p12----------------||---------------------------14-12\10h12p10-||------------------------------------------|
lyrics: Oh no, here it comes again Can't remember when we came so close to love before Hold on, good things never last Nothing's in the past, it always seems to come again Again and again and again Cry out to legions of the brave Time again to save us from the jackals of the street Ride out, protectors of the realm Captain's at the helm, sail across the sea of lights Circles and rings, dragons and kings Weaving a charm and a spell Blessed by the night, holy and bright Called by the toll of the bell Bloodied angels fast descending Moving on a never-bending light Phantom figures free forever Out of shadows, shining ever-bright Neon Knights! Neon Knights! all right! Cry out to legions of the brave Time again to save us from the jackals of the street Ride out, protectors of the realm Captain's at the helm, sail across the sea of lights Again and again, again and again and again Neon Knights! Neon Knights! All right! God Rulz
Tap to rate this tab
 
# A B C D E F G H I J K L M N O P Q R S T U V W X Y Z