Hit The Lights tab with lyrics by Black Tide - Easy chords and tabs for guitar

Black Tide – Hit The Lights tab

Band:Black Tide
Song: Hit the lights(metallica cover)

Basically the same as the metallica version, the lead parts are a little more tricky. 
AND its in Eb standard. I'll probably finish the rest later this week when I get off work.

Beginning 0:00E||------------------|----------------------|------------|------------------|B||------------------|----------------------|------------|------------------|G||------------------|----------------------|------------|------------------|D||--2---------------|--2----2----2----2----|--2----2----|--2---------------|A||--2---------------|--2----2----2----2----|--2----2----|--2---------------|E||--0---------------|--0----0----0----0----|--0----0----|--0---------------|//
|------------------|-----------------|------------------||------------------|-----------------|------------------||------------------|-----------------|------------------||------------------|-----------------|------------------||--4---------------|-----------------|--x\--------------||--2---------------|-----------------|--x\--------------|//
|-----------------------------|-------------------------------||-----------------------------|-------------------------------||-----------------5--7-7---0--|-------------------------------||--5--------------5--7-7---0--|--5--------------7p5---5-------||--0--0-0-0-0-0-0-------------|--0--0-0-0-0-0-0-----7----6-7--||-----------------------------|-------------------------------|
|------------------------------|----------------------------||------------------------------|----------------------------||-----------------5--7-7--0-0--|--5-------------------7b----||--5--------------5--7-7--0-0--|--5-------------------------||--0--0-0-0-0-0-0--------------|-----0-0-0-0-0-0-6h7--------||------------------------------|----------------------------|
|-----------------------------|-------------------------------||-----------------------------|-------------------------------||-----------------5--7-7---0--|--5----------------------------||--5--------------5--7-7---0--|--5--------------7p5---5-------||--0--0-0-0-0-0-0-------------|-----0-0-0-0-0-0-----7----6-7--||-----------------------------|-------------------------------|
|------------------------------|----------------------------------||------------------------------|----------------------------------||-----------------5--7-7--0-0--|-----------------------------(5)--||--5--------------5--7-7--0-0--|--5----------------(5)---(5)------||--0--0-0-0-0-0-0--------------|--0--0-0-0-0-0-(5)----------------||------------------------------|----------------------------------|
|------------------------------|-------------------------------||------------------------------|-------------------------------||-----------------5--7-7--0-0--|-------------------------------||--5--------------5--7-7--0-0--|--5--------------7p5---5-------||--0--0-0-0-0-0-0--------------|--0--0-0-0-0-0-0-----7----6-7--||------------------------------|-------------------------------|
|------------------------------|-------------------------------||------------------------------|-------------------------------||-----------------5--7-7--0-0--|--5----------------------------||--5--------------5--7-7--0-0--|--5--------------7p5---5-------||--0--0-0-0-0-0-0--------------|-----0-0-0-0-0-0-----7----6-7--||------------------------------|-------------------------------|
Verse|----------------------|-----------------------|------------------------------||----------------------|-----------------------|------------------------------||--7--7----------------|--7--7-----------------|-----------------5--7-7--0-0--||--7--7------5--5------|--7--7-----------------|--5--------------5--7-7--0-0--||--5--5------5--5------|--5--5------3---2------|--0--0-0-0-0-0-0--------------||------------3--3------|--------------------3--|------------------------------|
|-------------------------------|------------------------------||-------------------------------|------------------------------||-------------------------------|-----------------5--7-7--0-0--||--5--------------7p5---5-------|--5--------------5--7-7--0-0--||--0--0-0-0-0-0-0-----7----6-7--|--0--0-0-0-0-0-0--------------||-------------------------------|------------------------------|
|-------------------------------|----------------------|-----------------------||-------------------------------|----------------------|-----------------------||--5----------------------------|--7--7----------------|--7--7-----------------||--5--------------7p5---5-------|--7--7------5--5------|--7--7-----------------||-----0-0-0-0-0-0-----7----6-7--|--5--5------5--5------|--5--5------3---2------||-------------------------------|------------3--3------|--------------------3--|
------------------------------|-------------------------------|------------------------------|-------------------------------|-----------------5--7-7--0-0--|-------------------------------|--5--------------5--7-7--0-0--|--5--------------7p5---5-------|--0--0-0-0-0-0-0--------------|--0--0-0-0-0-0-0-----7----6-7--|------------------------------|-------------------------------|
|--------------------|--------------------------------|-------------------------||--------------------|--------------------------------|-------------------------||--------------------|--------------------------------|-------------------------||-----9--------------|--------------------------------|--2----2------2---2------||-----7--------------|-----------------3----2---------|--0----0------0---0------||--0-----------------|--3----2----3--------------3----|------------3------------|
|---------------------|-----------------------|---------------------||---------------------|-----------------------|---------------------||---------------------|-----------------------|---------------------||----2---2----5-------|--2----2------2---2----|----2---2----5-------||----0---0----3---5---|--0----0------0---0----|----0---0----3---5---||--3--------------3---|------------3----------|--3--------------3---|
|-----------------------|---------------------|-----------------------||-----------------------|---------------------|-----------------------||-----------------------|---------------------|-----------------------||--2----2------2---2----|----2---2----5-------|--2----2------2---2----||--0----0------0---0----|----0---0----3---5---|--0----0------0---0----||------------3----------|--3--------------3---|------------3----------|
|-----------------|------------------------------||-----------------|------------------------------||-----------------|-----------------5--7-7--0-0--||-----------------|--5--------------5--7-7--0-0--||-----------------|--0--0-0-0-0-0-0--------------||-----------------|------------------------------|
|-------------------------------|------------------------------||-------------------------------|------------------------------||-------------------------------|-----------------5--7-7--0-0--||--5--------------7p5---5-------|--5--------------5--7-7--0-0--||--0--0-0-0-0-0-0-----7----6-7--|--0--0-0-0-0-0-0--------------||-------------------------------|------------------------------|
|-------------------------------|----------------------|-----------------------||-------------------------------|----------------------|-----------------------||--5----------------------------|--7--7----------------|--7--7-----------------||--5--------------7p5---5-------|--7--7------5--5------|--7--7-----------------||-----0-0-0-0-0-0-----7----6-7--|--5--5------5--5------|--5--5------3---2------||-------------------------------|------------3--3------|--------------------3--|
|------------------------------|-------------------------------||------------------------------|-------------------------------||-----------------5--7-7--0-0--|-------------------------------||--5--------------5--7-7--0-0--|--5--------------7p5---5-------||--0--0-0-0-0-0-0--------------|--0--0-0-0-0-0-0-----7----6-7--||------------------------------|-------------------------------|
|------------------------------|-------------------------------||------------------------------|-------------------------------||-----------------5--7-7--0-0--|--5----------------------------||--5--------------5--7-7--0-0--|--5--------------7p5---5-------||--0--0-0-0-0-0-0--------------|-----0-0-0-0-0-0-----7----6-7--||------------------------------|-------------------------------|
|----------------------|-----------------------|------------------------------||----------------------|-----------------------|------------------------------||--7--7----------------|--7--7-----------------|-----------------5--7-7--0-0--||--7--7------5--5------|--7--7-----------------|--5--------------5--7-7--0-0--||--5--5------5--5------|--5--5------3---2------|--0--0-0-0-0-0-0--------------||------------3--3------|--------------------3--|------------------------------|
|-------------------------------|--------------------||-------------------------------|--------------------||-------------------------------|--------------------||--5--------------7p5---5-------|-----9--------------||--0--0-0-0-0-0-0-----7----6-7--|-----7--------------||-------------------------------|--0-----------------|
|--------------------------------|-----------------------|---------------------||--------------------------------|-----------------------|---------------------||--------------------------------|-----------------------|---------------------||--------------------------------|--2----2------2---2----|----2---2----5-------||-----------------3----2---------|--0----0------0---0----|----0---0----3---5---||--3----2----3--------------3----|------------3----------|--3--------------3---|
|-----------------------|---------------------|-----------------------||-----------------------|---------------------|-----------------------||-----------------------|---------------------|-----------------------||--2----2------2---2----|----2---2----5-------|--2----2------2---2----||--0----0------0---0----|----0---0----3---5---|--0----0------0---0----||------------3----------|--3--------------3---|------------3----------|
|---------------------|-----------------------|----------------||---------------------|-----------------------|----------------||---------------------|-----------------------|----------------||----2---2----5-------|--2----2------2---2----|----------------||----0---0----3---5---|--0----0------0---0----|----------------||--3--------------3---|------------3----------|----------------|
|------------------------------|-------------------------------||------------------------------|-------------------------------||-----------------5--7-7--0-0--|-------------------------------||--5--------------5--7-7--0-0--|--5--------------7p5---5-------||--0--0-0-0-0-0-0--------------|--0--0-0-0-0-0-0-----7----6-7--||------------------------------|-------------------------------|
|------------------------------|-------------------------------||------------------------------|-------------------------------||-----------------5--7-7--0-0--|--5----------------------------||--5--------------5--7-7--0-0--|--5--------------7p5---5-------||--0--0-0-0-0-0-0--------------|-----0-0-0-0-0-0-----7----6-7--||------------------------------|-------------------------------|
|----------------------|-----------------------|------------------------------||----------------------|-----------------------|------------------------------||--7--7----------------|--7--7-----------------|-----------------5--7-7--0-0--||--7--7------5--5------|--7--7-----------------|--5--------------5--7-7--0-0--||--5--5------5--5------|--5--5------3---2------|--0--0-0-0-0-0-0--------------||------------3--3------|--------------------3--|------------------------------|
|-------------------------------|------------------------------||-------------------------------|------------------------------||-------------------------------|-----------------5--7-7--0-0--||--5--------------7p5---5-------|--5--------------5--7-7--0-0--||--0--0-0-0-0-0-0-----7----6-7--|--0--0-0-0-0-0-0--------------||-------------------------------|------------------------------|
|-------------------------------|----------------------|-----------------------||-------------------------------|----------------------|-----------------------||--5----------------------------|--7--7----------------|--7--7-----------------||--5--------------7p5---5-------|--7--7------5--5------|--7--7-----------------||-----0-0-0-0-0-0-----7----6-7--|--5--5------5--5------|--5--5------3---2------||-------------------------------|------------3--3------|--------------------3--|
|------------------------------|-------------------------------||------------------------------|-------------------------------||-----------------5--7-7--0-0--|-------------------------------||--5--------------5--7-7--0-0--|--5--------------7p5---5-------||--0--0-0-0-0-0-0--------------|--0--0-0-0-0-0-0-----7----6-7--||------------------------------|-------------------------------|
|--------------------|--------------------------------|-----------------------||--------------------|--------------------------------|-----------------------||--------------------|--------------------------------|-----------------------||-----9--------------|--------------------------------|--2----2------2---2----||-----7--------------|-----------------3----2---------|--0----0------0---0----||--0-----------------|--3----2----3--------------3----|------------3----------|
|---------------------|-----------------------|---------------------||---------------------|-----------------------|---------------------||---------------------|-----------------------|---------------------||----2---2----5-------|--2----2------2---2----|----2---2----5-------||----0---0----3---5---|--0----0------0---0----|----0---0----3---5---||--3--------------3---|------------3----------|--3--------------3---|
|-----------------------|---------------------|-----------------------||-----------------------|---------------------|-----------------------||-----------------------|---------------------|-----------------------||--2----2------2---2----|----2---2----5-------|--2----2------2---2----||--0----0------0---0----|----0---0----3---5---|--0----0------0---0----||------------3----------|--3--------------3---|------------3----------|
|---------------------|--------------------||------------------------||---------------------|--------------------||------------------------||---------------------|-----------4--------||*------------------5----||----2---2----5-------|--2--------5--------||*--7---7---7---7---5----||----0---0----3---5---|--0--------5--------||---0---0---0---0--------||--3--------------3---|-----------3--------||------------------------|
|-----------------------|-----------------------|-----------------------||-----------------------|-----------------------|-----------------------| x3|------------------7----|------------------5----|----------------------*||--7---7---7---7---7----|--7---7---7---7---5----|--7---5---------------*||--0---0---0---0--------|--0---0---0---0--------|----------7--6--5------||-----------------------|-----------------------|-------------------8---|
|-----------------------|-----------------------|-----------------------||-----------------------|-----------------------|-----------------------||--4---4---4---4---7----|--4---4---4---4---9----|--4---4---4---4---7----||--4---4---4---4---7----|--4---4---4---4---9----|--4---4---4---4---7----||--2---2---2---2---5----|--2---2---2---2---7----|--2---2---2---2---5----||-----------------------|-----------------------|-----------------------|
|-----------------------|-----------------------|-----------------------||-----------------------|-----------------------|-----------------------||-----------------------|--4---4---4---4---7----|--4---4---4---4---9----||--9---7----------------|--4---4---4---4---7----|--4---4---4---4---9----||----------9--8--7------|--2---2---2---2---5----|--2---2---2---2---7----||-------------------10--|-----------------------|-----------------------|
|-----------------------|-----------------------|-----------------------||-----------------------|-----------------------|-----------------------||--4---4---4---4---7----|-----------------------|--4---4---4---4---7----||--4---4---4---4---7----|--9---7----------------|--4---4---4---4---7----||--2---2---2---2---5----|----------9--8--7------|--2---2---2---2---5----||-----------------------|-------------------10--|-----------------------|
|-----------------------|-----------------------|-----------------------||-----------------------|-----------------------|-----------------------||--4---4---4---4---9----|--4---4---4---4---7----|-----------------------||--4---4---4---4---9----|--4---4---4---4---7----|--9---7----------------||--2---2---2---2---7----|--2---2---2---2---5----|----------9--8--7------||-----------------------|-----------------------|-------------------10--|
|-----------------------|-----------------------|-----------------------||-----------------------|-----------------------|-----------------------||--4---4---4---4---7----|--4---4---4---4---9----|--4---4---4---4---7----||--4---4---4---4---7----|--4---4---4---4---9----|--4---4---4---4---7----||--2---2---2---2---5----|--2---2---2---2---7----|--2---2---2---2---5----||-----------------------|-----------------------|-----------------------|
|-----------------------|-----------------------|-----------------------||-----------------------|-----------------------|-----------------------||-----------------------|--4---4---4---4---7----|--4---4---4---4---9----||--9---7----------------|--4---4---4---4---7----|--4---4---4---4---9----||----------9--8--7------|--2---2---2---2---5----|--2---2---2---2---7----||-------------------10--|-----------------------|-----------------------|
|-----------------------|-----------------------|-----------------------||-----------------------|-----------------------|-----------------------||--4---4---4---4---7----|-----------------------|--4---4---4---4---7----||--4---4---4---4---7----|--9---7----------------|--4---4---4---4---7----||--2---2---2---2---5----|----------9--8--7------|--2---2---2---2---5----||-----------------------|-------------------10--|-----------------------|
|-----------------------|-----------------------|-----------------------||-----------------------|-----------------------|-----------------------||--4---4---4---4---9----|--4---4---4---4---7----|-----------------------||--4---4---4---4---9----|--4---4---4---4---7----|--9---7----------------||--2---2---2---2---7----|--2---2---2---2---5----|----------9--8--7------||-----------------------|-----------------------|-------------------10--|
|-----------------------|-----------------------|-----------------------||-----------------------|-----------------------|-----------------------||--4---4---4---4---7----|--4---4---4---4---9----|--4---4---4---4---7----||--4---4---4---4---7----|--4---4---4---4---9----|--4---4---4---4---7----||--2---2---2---2---5----|--2---2---2---2---7----|--2---2---2---2---5----||-----------------------|-----------------------|-----------------------|
|-----------------------|-----------------------|-----------------------||-----------------------|-----------------------|-----------------------||-----------------------|--4---4---4---4---7----|--4---4---4---4---9----||--9---7----------------|--4---4---4---4---7----|--4---4---4---4---9----||----------9--8--7------|--2---2---2---2---5----|--2---2---2---2---7----||-------------------10--|-----------------------|-----------------------|
|-----------------------|-----------------------|-----------------------||-----------------------|-----------------------|-----------------------||--4---4---4---4---7----|-----------------------|------------------5----||--4---4---4---4---7----|--9---7----------------|--7---7---7---7---5----||--2---2---2---2---5----|----------9--8--7------|--7---7---7---7---3----||-----------------------|-------------------10--|--5---5---5---5--------|
|-----------------------|-----------------------|----------------------||-----------------------|-----------------------|----------------------||------------------7----|------------------5----|----------------------||--7---7---7---7---7----|--7---7---7---7---5----|--7---5---------------||--7---7---7---7---5----|--7---7---7---7---3----|----------7--6--5-----||--5---5---5---5--------|--5---5---5---5--------|-------------------8--|
|-----------------------|-----------------------|-----------------------||-----------------------|-----------------------|-----------------------||------------------5----|------------------7----|------------------5----||--7---7---7---7---5----|--7---7---7---7---7----|--7---7---7---7---5----||--7---7---7---7---3----|--7---7---7---7---5----|--7---7---7---7---3----||--5---5---5---5--------|--5---5---5---5--------|--5---5---5---5--------|
|----------------------|----------------------|----------------------||----------------------|----------------------|----------------------||----------------------|----------------------|----------------------||--7---5---------------|--7---5---------------|--7---5---------------||----------7--6--5-----|----------7--6--5-----|----------7--6--5-----||-------------------8--|-------------------8--|-------------------8--|
|------------------------------------------------------------------||------------------------------------------------------------------||--2-2-2-2-2-2-2-2-2-2-2-2-2-2-2-2-2-2-2-2-2-2-2-2-2-2-2-2-2-2-2-2-||--2-2-2-2-2-2-2-2-2-2-2-2-2-2-2-2-2-2-2-2-2-2-2-2-2-2-2-2-2-2-2-2-||--0-0-0-0-0-0-0-0-0-0-0-0-0-0-0-0-0-0-0-0-0-0-0-0-0-0-0-0-0-0-0-0-||------------------------------------------------------------------|
|------------------------------------------------------------------||------------------------------------------------------------------||--2-2-2-2-2-2-2-2-2-2-2-2-2-2-2-2-2-2-2-2-2-2-2-2-2-2-2-2-2-2-2-2-||--2-2-2-2-2-2-2-2-2-2-2-2-2-2-2-2-2-2-2-2-2-2-2-2-2-2-2-2-2-2-2-2-||--0-0-0-0-0-0-0-0-0-0-0-0-0-0-0-0-0-0-0-0-0-0-0-0-0-0-0-0-0-0-0-0-||------------------------------------------------------------------|
|-----------------|----------------|-------------------||-----------------|----------------|-------------------||--2--------------|----------------|--2----2-----------||--2--------------|----------------|--2----2-----------||--0--------------|----------------|--0----0-----------||-----------------|----------------|-------------------|
Again, kinda ran out of time/patience. lol.
Please rate this tab:
x1.0