Blind Witness - Baby One More Notch tab version 2

|---------------------------------------------------||---------------------------------------------------||---------------------------------------------------||---------------------------------------------------||---000-000-00-000-------000-000-00-000-------------||-1-000-000-00-000-1-3-1-000-000-00-000-p1h1p1h1----|
|---------------------------------------------------||---------------------------------------------------||---------------------------------------------------||---------------------------------------------------||-000-000-00-000-----------------000-000-00-000-----||-000-000-00-000-1-3-1-*0-00---1-000-000-00-000-----|
|-----------------------------------------------||-----------------------------------------------||-----------------------------------------------||-----------------------------------------------||-------000-000-00-000----------000-000-00-000--||-1-3-1-000-000-00-000-p1h1p1h1-000-000-00-000--|
|-----------------------------------------------||-----------------------------------------------||-----------------------------------------------||-----------------------------------------------||------------------------*00-*00-*0-*00---------||-1-3-1--*1111111111111--*11-*11-*1-*11--1-3-1--|
|-----------------------------------------------||-----------------------------------------------||-----------------------------------------------||-----------------------------------------------||-*00-*00-*0-*00------------*00-*00-*0-*00------||-*11-*11-*1-*11--p1h1p1h1--*11-*11-*1-*11------|
|------------------------------------------------||------------------------------------------------||------------------------------------------------||------------------------------------------------||-*00-*00-*0-*00--------*00-*00-*0-*00-----------||-*11-*11-*1-*11--1-3-1-*11-*11-*1-*11--p1h1p1h1-|
|---------------------------------------------------||---------------------------------------------------||---------------------------------------------------||---------------------------------------------------||-0--------------5-8-5--4--4--4--4----5-7-8---5-7-8-||-0-------0-*0-0------*0-*0-*0-*0--*00---*00--------|
|------------------------------------------------||------------------------------------------------||------------------------------------------------||-----------5-7----------------------------------||------5-7-8---8-5-----5-8-5--4--4--4--4---------||-5-7-8-------------*00-------*0-*0-*0-*0--------|
|------------------------------------------------||------------------------------------------------||------------------------------------------------||------------------------------------------------||------------------------------------------------||-*00-5-7-8--*00-5-7-8--5555-7777----------------|
|-----------------------------------------------||-----------------------------------------------||-----------------------------------------------||-----------------------------------------------||--------5-8-5--4--4--4--4----5-7-8---5-7-8-----||-0-*0-0------*0-*0-*0-*0--*00---*00------------|
|------------------------------------------------||------------------------------------------------||------------------------------------------------||-----------5-7----------------------------------||------5-7-8---8-5-----5-8-5--4--4--4--4---------||-5-7-8-------------*00-------*0-*0-*0-*0--------|
|------------------------------------------------||------------------------------------------------||------------------------------------------------||------------------------------------------------||------------------------------------------------||-*00-5-7-8--*00-5-7-8--5555-7777----------------|
|------------------------------------------------||------------------------------------------------||------------------------------------------------||------------------------------------------------||-00000000-55555555-88888888-77777777-00000000---||-00000000-55555555-88888888-77777777-00000000---|
|------------------------------------------------||------------------------------------------------||------------------------------------------------||------------------------------------------------||-55555555-33333333-11111111---------------------||-55555555-33333333-11111111---------------------|
|---------------------------------------------------||---------------------------------------------------||---------------------------------------------------||---------------------------------------------------||-0--------------5-8-5--4--4--4--4----5-7-8---5-7-8-||-0-------0-*0-0------*0-*0-*0-*0--*00---*00--------|
|------------------------------------------------||------------------------------------------------||------------------------------------------------||-----------5-7----------------------------------||------5-7-8---8-5-----5-8-5--4--4--4--4---------||-5-7-8-------------*00-------*0-*0-*0-*0--------|
|------------------------------------------------||------------------------------------------------||------------------------------------------------||------------------------------------------------||------------------------------------------------||-*00-5-7-8--*00-5-7-8--5555-7777----------------|
|-----------------------------------------------||-----------------------------------------------||-----------------------------------------------||-----------------------------------------------||--------5-8-5--4--4--4--4----5-7-8---5-7-8-----||-0-*0-0------*0-*0-*0-*0--*00---*00------------|
|------------------------------------------------||------------------------------------------------||------------------------------------------------||-----------5-7----------------------------------||------5-7-8---8-5-----5-8-5--4--4--4--4---------||-5-7-8-------------*00-------*0-*0-*0-*0--------|
|------------------------------------------------||------------------------------------------------||------------------------------------------------||------------------------------------------------||------------------------------------------------||-*00-5-7-8--*00-5-7-8--5555-7777----------------|
|------------------------------------------------||------------------------------------------------||------------------------------------------------||------------------------------------------------||-00000000-55555555-88888888-77777777-00000000---||-00000000-55555555-88888888-77777777-00000000---|
|------------------------------------------------||------------------------------------------------||------------------------------------------------||------------------------------------------------||-55555555-33333333-11111111---------------------||-55555555-33333333-11111111---------------------|
-Enair
Tap to rate this tab
 
# A B C D E F G H I J K L M N O P Q R S T U V W X Y Z