Blizzard - Iron Man tab

Iron Man
Blizzard - Vulgar Use of Disgust (1993)

INTRO:(clean guitar with echo)e-|----------||-------------------|---------------------|--------------------|B-|----------||-------------------|---------------------|--------------------|G-|----------||-------------------|---------------------|--------------------|D-|----------||-------------------|---------------------|--------------------|A-|----------||-------------------|---------------------|--------------------|E-|----------||---0---------------|---2-----------------|---0----------------|
e-|-----------------|-----------------|-------------------|------------------|B-|-----------------|-----------------|-------------------|------------------|G-|-----------------|-----------------|-------------------|------------------|D-|-----------------|-----------------|-------------------|------------------|A-|-----------------|-----------------|-------------------|------------------|E-|---2-------------|---0-------------|--0--1--2----------|---0--------------|
e-|--------------------------|---------------------------|-----------(12)---|B-|--------------------------|---------------------------|------------------|G-|--------------------------|---------------------------|------------------|D-|-------------------2------|---------------------------|------------------|A-|---------------2----------|---------------------------|--0---------------|E-|--0--1--2-------------2---|-----2----------2----------|------------------|
e-|--------------------------|--(12)------------------|---------------------||B-|--------------------------|------------------------|---------------------||G-|--------------------------|------------------------|---------------------||D-|--------------------------|------------------------|---------------------||A-|--------------------------|------------------------|---------------------||E-|--2b(3)--2--0-------------|------------------------|--0--1--2------------||
|-------------------------------------------------------------||-------------------------------------------------------------||-------------------------------------------------------------||-------------------------------------------------------------||--9-/-12--12/14-14----17\16-17\16-17\12--12-12/14-14---------||--7-/-10--10/12-12----15\14-15\14-15\10--10-10/12-12---------|
|-------------------------------||-------------------------------||-------------------------------||-------------------------------||------5------------------------||--7-7---7--6-5-5-5--0-4-5-5-6--|
|------------------------------------------------||------------------------------------------------||------------------------------------------------||------------------7-8-9----------------7-8-9----||-9-9------7-7-8-9------9-9------7-7-8-9---------||-7-7-7-10--------------7-7-7-10-----------------|
|-----------------------------------------------------------||-----------------------------------------------------------||11-9-----------------------11-9----------------------------||----11-10-9--------------------11-10-9---------------------||------------7--------------------------7-------------------||--------------7-7/9-9--------------------7-7/9-9-----------|
SOLO:e-|--------------------------------------------------------------------------|B-|--------------------------------------------------------------------------|G-|---------------------------------4>(6)======>(5)===>(6)vvvvvvvv>(5)>(6)---|D-|----2>4vvvvvvvvvvvvvvvv---------------------------------------------------|A-|--------------------------------------------------------------------------|E-|--------------------------------------------------------------------------|
e-|-------------------------------------------------|B-|-------------------------------------------------|G-|---4<(6)=======>4>2---4>(6)--4vvvvvvvvvvvvvvv----|D-|-------------------------------------------------|A-|-------------------------------------------------|E-|-------------------------------------------------|
e-|---------------------------------------------5>(6)----------------|B-|------------------------------5-5>7>5>7>5>7------------7vvvvvv----|G-|------------------------/6----------------------------------------|D-|--4<(6)====>4vvvvvv-----------------------------------------------|A-|------------------------------------------------------------------|E-|------------------------------------------------------------------|
e-|---------------------------------------------9--9---9--9>(10)======>9--|B-|-----------------------------------------------------------------------|G-|---4>(6)==========>4>2-----4>(6)------6/9----9--9---9------------------|D-|-----------------------------------------------------------------------|A-|-----------------------------------------------------------------------|E-|-----------------------------------------------------------------------|
-------------------------------------------------------------------------------|--10>(12)==========>10----9vvvvvvv--9>(10)=====>9------------------------------|-----------------------------------------------------9>(10)==>(11)==========>9-|-------------------------------------------------------------------------------|-------------------------------------------------------------------------------|-------------------------------------------------------------------------------|
e-|----------------------------------17----------------------------------|B-|----------14---17>(19)----17>(19)-----17>(19)==========>17---17>(19)--|G-|------14--------------------------------------------------------------|D-|--/16-----------------------------------------------------------------|A-|----------------------------------------------------------------------|E-|----------------------------------------------------------------------|
e-|--------------------------------------------------------------------------|B-|--17----------------------------------------------------------------------|G-|-------16>(18)vvvvvvv--16>(19)>16>(18)vvvv---16>(18)==========>16vvvvvvv--|D-|--------------------------------------------------------------------------|A-|--------------------------------------------------------------------------|E-|--------------------------------------------------------------------------|
--------------------------------------------------17>(19)-----17>(19)=====>17-|--------15--15---14>(15)>14-------------------14------------------------------|----16------------------------14----------------------------------------------|----------------------------------16vvvvvvv-----------------------------------|------------------------------------------------------------------------------|------------------------------------------------------------------------------|
----------------------------------------------------------------------------|----17>(19)vvvvvvvvvvvvv----(19)>17--17vvvv---------------------------------|----------------------------------------------(17)>16>14--14---16>(18)vvvv--|----------------------------------------------------------------------------|----------------------------------------------------------------------------|----------------------------------------------------------------------------|
e-|---19>(21)===>19--19>(21)=====>19--19vvvvvvv----|B-|------------------------------------------------|G-|------------------------------------------------|D-|------------------------------------------------|A-|------------------------------------------------|E-|------------------------------------------------|
e-|---16------------------------------------------------------|B-|-------17--------17/19vvvvvv---17>19>17---17\14vvvvvvvvv\--|G-|-----------16----------------------------------------------|D-|-----------------------------------------------------------|A-|-----------------------------------------------------------|E-|-----------------------------------------------------------|
----------------------------------------------------------|----------7---10/12--10vvvvv---9--10---9>10>9>7\5vvvvvv---|-----2/7--------------------------------------------------|--4-------------------------------------------------------|----------------------------------------------------------|----------------------------------------------------------|
-------------------------------------------------------------|--7/9---9----7\5-----5\2/5-----2---2-------------------------|----------------------------------4>(6)======vvvv>4--4>(7)---|-------------------------------------------------------------|-------------------------------------------------------------|-------------------------------------------------------------|
-------------------------------------------------------------------|-------------------------------------------------------------------|--(6)======>4--------(6)========>4>2>4>2vvvvvv--4>(6)=========>4---|-------------------------------------------------------------------|-------------------------------------------------------------------|-------------------------------------------------------------------|
-------------------------------------------------------------------|-------------------------------------------------------------------|----4vvvvvvvvvvvv-----2vvvvvvvvvvvv--------4-----------------------|--------------------------------------4/6-------6\4--2vvvvvvv------|-------------------------------------------------------------------|----------------------------------------------------------------0--|
Leads:
A--------------------------------------|----2----------2--------2-------------|---4>(6)======(6)=4--2--2-------------|----------------------------2vvvvv----|--------------------------------------|--------------------------------------|
B---7/9--9--9\7--7\---|---------------------|---7/9--9--9\7--7\---|---------------------|---------------------|---------------------|
C------------------|---7---5---3---2--|------------------|---7---5---4---2--|------------------|------------------|
D-----------------------------------------------|---2-------------------------------------------|--4>(6)------4>(6)>4>2-----2-------------------|------------------------4------2-vvvvvvvvvvv---|-----------------------------------------------|-----------------------------------------------|
E-----------------------|----10---12----10------|----0-----0-----0------|----11---12----11------|-----------------------|-----------------------|
Tap to rate this tab
 
# A B C D E F G H I J K L M N O P Q R S T U V W X Y Z