Death From Above tab with lyrics by Bloodsimple - Easy chords and tabs for guitar

Bloodsimple – Death From Above tab

-------------------------------------------------------------------------------
			     Death From Above - Bloodsimple
-------------------------------------------------------------------------------

Tabbed by: Dog454
Email: Dog454@gmail.com

Tuning: Drop C# (Drop D 1/2 step down)
C# Ab Db Gb Bb Eb

Intro|-----------------------------------------------||------------11-------------9-------------------||------------x--------------x-------------------||-2-2-0-0-2--8---2-2-0-0-2--6--2-0-2------------||-2-2-0-0-2------2-2-0-0-2-----2-0-2------------||-2-2-0-0-2------2-2-0-0-2-----2-0-2------------|
|-----------------------------------------------||------------11-------------9-------------------||------------x--------------x-------------------||-2-2-0-0-2--8---2-2-0-0-2--6--2-4-5------------||-2-2-0-0-2------2-2-0-0-2-----2-4-5------------||-2-2-0-0-2------2-2-0-0-2-----2-4-5------------|
|-----------------------------------------------||------------11-------------9-------------------||------------x--------------x-------------------||-2-2-0-0-2--8---2-2-0-0-2--6--2-0-2------------||-2-2-0-0-2------2-2-0-0-2-----2-0-2------------||-2-2-0-0-2------2-2-0-0-2-----2-0-2------------|
|-----------------------------------------------||------------11-------------9-------------------||------------x--------------x-------------------||-2-2-0-0-2--8---2-2-0-0-2--6--2-4-5--0---------||-2-2-0-0-2------2-2-0-0-2-----2-4-5--0---------||-2-2-0-0-2------2-2-0-0-2-----2-4-5--0---------|
Verse|-----------------------------------------------||-----------------------------------------------||-----------------------------------------------||-1-0-0-0-0-0-0-0--5--1h3p0-0-3h5---------------||-1-0-0-0-0-0-0-0--3--1h3p0-0-3h5---------------||-1-0-0-0-0-0-0-0-----1h3p0-0-3h5---------------|x4
|-----------------------------------------------||-----------------------------------------------||-----------------------------------------------||-3-2-2-2-2-2-2-2--7--3h5p0-0-5h6---------------||-3-2-2-2-2-2-2-2--5--3h5p0-0-5h6---------------||-3-2-2-2-2-2-2-2-----3h5p0-0-5h6---------------|x2
|----------------------------------|---------------------||----------------------------------|---------------------||----------------------------------|-7-7-7-7-7-7---------||-1-0-0-0-0-0-0-0--5--1h3p0-0-3h5--|-x-x-x-x-x-x-6-------||-1-0-0-0-0-0-0-0--3--1h3p0-0-3h5--|-5-5-5-5-5-5-6-------||-1-0-0-0-0-0-0-0-----1h3p0-0-3h5--|-------------6-------|
Pre-Chorus|-----------------------------------------------------------||-----------------------------------------------------------||---7/9----------7/9----------7/9---------------------------||---x/x-0-6\5----x/x-0-6\5----x/x-0-6\5--0-6\5-0-5\4-0-4\3--||-0-5/7-0-6\5--0-5/7-0-6\5--0-5/7-0-6\5--0-6\5-0-5\4-0-4\3--||-0-----0-6\5--0-----0-6\5--0-----0-6\5--0-6\5-0-5\4-0-4\3--|
Chorus|-----------------------------------------------------------||-----------------------------------------------------------||-----------------------------------------------------------||-2-0-2-/8--2-0-2-/6--2-0-2----2-0-2-/8--2-0-2-/6--2-4-5----||-2-0-2-/8--2-0-2-/6--2-0-2----2-0-2-/8--2-0-2-/6--2-4-5----||-2-0-2-/8--2-0-2-/6--2-0-2----2-0-2-/8--2-0-2-/6--2-4-5----|x2
|-----------------------------------------------------------------------------||------------11-------------9----------------------11-------------9-----------||------------x--------------x----------------------x--------------x-----------||-2-2-0-0-2--8---2-2-0-0-2--6--2-0-2----2-2-0-0-2--8---2-2-0-0-2--6--2-4-5----||-2-2-0-0-2------2-2-0-0-2-----2-0-2----2-2-0-0-2------2-2-0-0-2-----2-4-5----||-2-2-0-0-2------2-2-0-0-2-----2-0-2----2-2-0-0-2------2-2-0-0-2-----2-4-5----|x2
Verse|-----------------------------------------------||-----------------------------------------------||-----------------------------------------------||-1-0-0-0-0-0-0-0--5--1h3p0-0-3h5---------------||-1-0-0-0-0-0-0-0--3--1h3p0-0-3h5---------------||-1-0-0-0-0-0-0-0-----1h3p0-0-3h5---------------|x4
|-----------------------------------------------||-----------------------------------------------||-----------------------------------------------||-3-2-2-2-2-2-2-2--7--3h5p0-0-5h6---------------||-3-2-2-2-2-2-2-2--5--3h5p0-0-5h6---------------||-3-2-2-2-2-2-2-2-----3h5p0-0-5h6---------------|x2
|----------------------------------|---------------------||----------------------------------|---------------------||----------------------------------|-7-7-7-7-7-7---------||-1-0-0-0-0-0-0-0--5--1h3p0-0-3h5--|-x-x-x-x-x-x-6-------||-1-0-0-0-0-0-0-0--3--1h3p0-0-3h5--|-5-5-5-5-5-5-6-------||-1-0-0-0-0-0-0-0-----1h3p0-0-3h5--|-------------6-------|
Chorus|-----------------------------------------------------------||-----------------------------------------------------------||-----------------------------------------------------------||-2-0-2-/8--2-0-2-/6--2-0-2----2-0-2-/8--2-0-2-/6--2-4-5----||-2-0-2-/8--2-0-2-/6--2-0-2----2-0-2-/8--2-0-2-/6--2-4-5----||-2-0-2-/8--2-0-2-/6--2-0-2----2-0-2-/8--2-0-2-/6--2-4-5----|x2
|--------------------------------------------------------------------------|---||------------11-------------9----------------------11-------------9--------|---||------------x--------------x----------------------x--------------x--------|-0-||-2-2-0-0-2--8---2-2-0-0-2--6--2-0-2----2-2-0-0-2--8---2-2-0-0-2--6--2-4-5-|-0-||-2-2-0-0-2------2-2-0-0-2-----2-0-2----2-2-0-0-2------2-2-0-0-2-----2-4-5-|-0-||-2-2-0-0-2------2-2-0-0-2-----2-0-2----2-2-0-0-2------2-2-0-0-2-----2-4-5-|-0-|x2
Interlude|-----------------------------------------------------------||-----------------------------------------------------------||-----------------------------------------------------------||-1-0-0-1-3/4\3-0-1-0-------0-------0-----------------------||-1-0-0-1-3/4\3-0-1-0-------0-------0-----------------------||-1-0-0-1-3/4\3-0-1-0-0-0-0-0-0-0-0-0-----------------------|x8pm . . . . . .
|---------------------------------|----------|---------------------||---------------------------------|----------|---------------------||---------------------------------|----------|---------------------||--------8-8-8-------6-6-6--------|----------|-8-8-8-8-8-8-8-8-----||--7-5-7-------7-5-7-------7-5-7--|--7-9-10--|-7-7-7-7-7-7-7-7-----||---------------------------------|----------|---------------------|x4pm . . . . . . . . . . . . . . . ^2nd End ^Last time ending
Chorus|-----------------------------------------------------------||-----------------------------------------------------------||-----------------------------------------------------------||-2-0-2-/8--2-0-2-/6--2-0-2----2-0-2-/8--2-0-2-/6--2-4-5----||-2-0-2-/8--2-0-2-/6--2-0-2----2-0-2-/8--2-0-2-/6--2-4-5----||-2-0-2-/8--2-0-2-/6--2-0-2----2-0-2-/8--2-0-2-/6--2-4-5----|x4
|--------------------------------------------------------------------------||------------11-------------9----------------------11-------------9--------||------------x--------------x----------------------x--------------x--------||-2-2-0-0-2--8---2-2-0-0-2--6--2-0-2----2-2-0-0-2--8---2-2-0-0-2--6--2-4-5-||-2-2-0-0-2------2-2-0-0-2-----2-0-2----2-2-0-0-2------2-2-0-0-2-----2-4-5-||-2-2-0-0-2------2-2-0-0-2-----2-0-2----2-2-0-0-2------2-2-0-0-2-----2-4-5-|x2
Final Chorus (Tremolo Picking):|--------------------------------------------------------------------||--------------------999999--------------------------999999----------||--------------------xxxxxx--------------------------xxxxxx----------||--------888888------666666--------------888888------666666----------||--775577------775577------775577---75577------775577------77991010--||--------------------------------------------------------------------|
2nd Guitar:|--------------------------------------------------------------------||--------------------------------------------------------------------||--------------------------------------------------------------------||--------------------------2-0-2---------------------------2-4-5-----||--------------------------2-0-2---------------------------2-4-5-----||--------------------------2-0-2---------------------------2-4-5-----|x2
End | / slide up | \ slide down | h hammer-on | p pull-off | ~ vibrato | + harmonic | x Mute note ===============================================================================
Please rate this tab:
x1.0