Blue Cheer - Rock Me Baby tab

Rock Me Baby - Blue Cheer
From their 1967 album "Vincebus Eruptum".
Standard tuning


==================================================================
Legend:

h - Hammer On
p - Pull Off
^ - Bend
^r - Bend and Release
~~ - Distortion/Let Ring
===================================================================

|---------------------------||--------12--10~~--------||---------------------------||------------------------||---------------------------||--12h14-----------------||------------12-------------||------------------------||------12h14----14----------||------------------------||--12--------------12-------||------------------------|
| | |
|---------------------------||------5--3~~------------||---------------------------||------------------------||---------------------------||--5h7-------------------||--------5------------------||------------------------||----5h7---7----------------||------------------------||--5---------5--------------||------------------------|
| | | |
|--7-10---7-7\---------------------------------------------||---------8-8\----8-8--8-8---------------------------------||-----------------9-9--9-9----------------------12---------||-----------------------------------------12-14----14------||-----------------------------------12h14------------------||-----------------------------------------------------12---|
|-----------------||--7--7---7--7----||--8--8---8--8----||-----------------||-----------------||-----------------|
Solo (use heavy distortion):
|--------------------------------------------------------||--------------------------------------------------------||--------12--------12--------12----------12--14^~~~~-----||--12h14-----12h14-----12h14------12h14------------------||--------------------------------------------------------||--------------------------------------------------------|
| | | |
|---------------------------------------------------||---------------------------------------------------||--14^~~---------------12h14---14^~~---15^----------||----------------12h14----------------------12------||----------12h14------------------------------------||---------------------------------------------------|
| | |
|-----------------------------15-12---------------------------||-------------------------------------------------------------||--------------12h14---14^~~--------12---14^r-12----12-14^~~--||--------12h14-----------------------------------14-----------||--12h14------------------------------------------------------||-------------------------------------------------------------|
| | | |
|------------------10h12p10h12p10h12p10h12p10--12^---12^r-10---------------||------------------------------------------------------------12--10h12~~---||--14^r-12----12-----------------------------------------------------------||----------14--------------------------------------------------------------||--------------------------------------------------------------------------||--------------------------------------------------------------------------|
| | | |
|---------------------------12---------------------------------------------||--------------------------------------------------------------------------||--14^r-12---------14^~~~------12--------12h14--14^~~~14^r--14-12-14-14^~~-||----------14-14-------------------12h14-----------------------------------||--------------------------------------------------------------------------||--------------------------------------------------------------------------|
| | |
|--------------------------------------------------------------------------||--12~~-13^-12-------------------------------------------------------------||-------------------------12--------------------12h14--14^~~--14^r-12------||-------------------12h14---14h12--------12h14-----------------------14-14-||---------------12h14---------------12h14----------------------------------||--------------------------------------------------------------------------|
| | |
|-------------------------------------------||-------------------------------------------||--12h14^~~-14^r-12-------------------------||-------------------14----------------------||-----------------------14-14---14-14^~~----||-------------------------------------------|
From here starts some solo, which goes til' the end of the song. Again, use some really heavy distortion and listen to the song, it's not hard to play this. ;)
|--------------------------------------------------------------------------||--------------------------------------------------------------------------||---------------------------------------------------------------12-14-14~~-||-----12-14--------12-14------12-14------12-14---12-14---12-14-------------||--14-----------14---------14----------14------14------14------------------||--------------------------------------------------------------------------|
| |
|--------------------------------------------------------------------||--------------------------------------------------------------------||---14^-14^--14^r-12----14^--12-14p12h14p12h14p12h14p12--14^r-12-----||--------------------14------------------------------------------14--||--------------------------------------------------------------------||--------------------------------------------------------------------|
| |
|--------------------------------------------------------------------------||--------------------------------------------------------------------------||--------------------------------------------------------------------------||--12h14--12h14--12h14-----12-14^~~---------------------12-14-14^~~~-14-14-||-----------------------14-----------12h14--12h14-12h14--------------------||--------------------------------------------------------------------------|
| |
|------------------------------------------------------------------------||----------------------------------15-12-15-17-15-17-17-15-17-17^--17^---||--12^r--12^r----------------12h14---------------------------------------||------------------------------------------------------------------------||--------------14--------------------------------------------------------||------------------------------------------------------------------------||------------------------------------------------------------------------|
| | | |
|--------------------------------------------------------------------------||--------------------------------------------------------------------------||-------------------------------------------------------------------14^----||--14p12h14p12h14p12h14p12h14p12h14p12h14p12h14p12h14p12h14p12h14p12-------||--------------------------------------------------------------------------||--------------------------------------------------------------------------|
| | |
|--------------------------------------------------------------------------||--------------------------------------------------------------------------||--14^-14^-14^r--------------12h14---12h14----14~~~14^r12-----14^-14^------||----------------------12h14-------14------14-------------14---------12h14-||----------------12h14-----------------------------------------------------||--------------------------------------------------------------------------|
| |
|--------------------------------------------------------------------------||--------------------------------------------------------------------------||--------------------------------------------------------------------------||--14p12h14p12h14p12h14p12h14p12h14p12h14p12h14p12h14p12h14p12h14p12-14~~--||--------------------------------------------------------------------------||--------------------------------------------------------------------------|
| | |
|-----------------------------------------------||--------------------------12^r-12^r-12^r-------||--------12-12-12-14^-14^-----------------------||--12h14------------------------------------14--||-----------------------------------------------||-----------------------------------------------|
Ending:
|--------------------------------------------------------||--------------------------------------------------------||--14^r-14^r-12---14^r-12----14^r-12----14^r-12----------||--------------14---------14---------14---------14-14~~--||--------------------------------------------------------||--------------------------------------------------------|
| | |
|-----------------||-----------------||-----------------||-----12-14~~-----||--14-------------||-----------------|
Hope you enjoy it, badass song by Blue Cheer. Please rate.
Tap to rate this tab
 
# A B C D E F G H I J K L M N O P Q R S T U V W X Y Z