Boyce Avenue - Iris tab

Boyce Avenue - Iris
Tabbed and arranged by: Alejandro Manzano of Boyce Avenue

www.Facebook.com/BoyceAvenue

video of me playing/singing it:
http://www.youtube.com/watch?v=ZwAhNy0w5oE

Tuning: A#  C#  C#  C#  C#  C#
Actual Song: B   D   D   D   D   D

E  down to C#
B  up to C#
G  down to C#
D  down to C#
A  down to C#
E  down to A#

x = mute
/ = slide

Intro: (play 2x)-0----0---0---0---0-0-0-|-0----0---0---0---0-0-0-|-0----0---5---4---5-4-0-|-12---11--0---0---0-0-0-|-9----9---5---5---5-5-5-|-0----0-----------------|
Verse 1: (play 4x)-----0---------0---------0---------0-----|---------0---------0---------0---------0-|-------0---------0---------0---------0---|---0---------0---------0---------0-------|-0---------2---------5---------5---------|-----------------------------------------|
-----0---------0---------0---------0-----|---------0---------0---------0---------0-|-------0---------0---------0---------0---|---0---------0---------0---------0-------|-9---------7---------5---------5---------|-----------------------------------------|
Chorus 1: (play 4x)-0----0----0----0-|-0----0----0----0-|-0----0----0----0-|-9----7----5----5-|-9----7----5----5-|------------------|
Turnaround:-0----0---0---0---0-0-0--0----0---4---2---0-|-0----0---0---0---0-0-0--0----0---0---0---0-|-0----0---5---4---5-4-0--0----0---5---4---0-|-12---11--0---0---0-0-0--12---11--0---0---0-|-9----9---5---5---5-5-5--9----9---5---5---5-|-0----0------------------0----0-------------|
Verse 2: (play 2x)-----0---------0---------0---------0-----|---------0---------0---------0---------0-|-------0---------0---------0---------0---|---0---------0---------0---------0-------|-0---------2---------5---------5---------|-----------------------------------------|
-----0---------0---------0---------0-----|---------0---------0---------0---------0-|-------0---------0---------0---------0---|---0---------0---------0---------0-------|-9---------7---------5---------5---------|-----------------------------------------|
Chorus 2: (play 4x)-0----0----0----0-|-0----0----0----0-|-0----0----0----0-|-9----7----5----5-|-9----7----5----5-|------------------|
Bridge:-0----0---0---0---0-0-0--0----0--|-0----0---0---0---0-0-0--0----0--|-0----0---5---4---5-4-0--0----0--|-12---11--0---0---0-0-0--12---11-|-9----9---5---5---5-5-5--9----9--|-0----0------------------0----0--|
----0----0-----0-----0-------|----0----0-----0-----0-0--0--|--0----0-----0-----0---0--0--|--0----0-----0-----0---0--0--|-----------------------------|-0----2----3-----5-----7\-5/-|
-9---7---9---7----9---7---9---7-|-0---0---0---0----0---0---0---0-|-0---0---0---0----0---0---0---0-|-0---0---0---0----0---0---0---0-|-x---x---x---x----x---x---x---x-|-8---8---8---8----7---7---7---7-|
-9---7---9---7----0---0---0---0---0--|-0---0---0---0----0---0---0---0---0--|-0---0---0---0----9---11--12--14--16-|-0---0---0---0----0---0---0---0---0--|-x---x---x---x----9---11--12--14--16-|-8---8---8---8----0---0---0---0---0--|
-9---7---9---7----9---7---9---7-|-0---0---0---0----0---0---0---0-|-0---0---0---0----0---0---0---0-|-0---0---0---0----0---0---0---0-|-x---x---x---x----x---x---x---x-|-8---8---8---8----7---7---7---7-|
-0---------0-----0-----0-----0---0---0-|-0---------0-----0-----0-----0---0---0-|-0-------0-----0-----0-----0-----------|-0-------0-----0-----0-----0-----------|-9-----9-----7-----5-------------------|-0-----------------------7-----5---3---|
Breakdown:-----0---------0---------0---------0-----|---------0---------0---------0---------0-|-------0---------0---------0---------0---|---0---------0---------0---------0-------|-----------------------------------------|0----------2---------3---------3---------|
-----0---------0---------0---------0-----|---------0---------0---------0---------0-|-------0---------0---------0---------0---|---0---------0---------0---------0-------|-----------7---------5---------5---------|-2---------------------------------------|
-----0---------0---------0---------0-----|---------0---------0---------0---------0-|-------0---------0---------0---------0---|---0---------0---------0---------0-------|-----------------------------------------|0----------2---------3---------3---------|
-----0---------0-----0-|---------0---------0-0-|-------0---------0---0-|---0---------0-------0-|-----------7---------5-|-0---------------------|
Chorus 3: (play 3x)-0----0----0----0-|-0----0----0----0-|-0----0----0----0-|-9----7----5----5-|-9----7----5----5-|------------------|
(play 4x)-0----0----0----0-|-0----0----0----0-|-0----0----0----0-|-0----0----0----0-|-9----7----5----5-|------------------|
Tap to rate this tab
 
# A B C D E F G H I J K L M N O P Q R S T U V W X Y Z