Boys Night Out - I Got Punched In The Nose For Sticking My Face In Other Peoples Business tab

Song: I Got Punched in the Nose for Sticking My Face in Other People's Business

Artist: Boys Night Out

Album: Make Yourself Sick


Tuning: DADGBe


This is 99.9% right. I looked at other tabs and the leads weren't right, neither were
of the technical parts in the rhythm. Only reason this is not 100% right is because during
bridge I didn't take time to figure out the guitar with the chorus effect.

don't steal this.
Have fun.

Guitar 1= Rhythm
Guitar 2= Lead

Intro:Both guitarsPick slide city, baby!|-----------------------||-----------------------||-/-/-/-/-/-------------||-/-/-/-/-/-------------||-/-/-/-/-/-------------||-/-/-/-/-/-------------|
Verse 1:GUITAR 1|--------------------------------------------------------------------||--------------------------------------------------------------------||--------------------------------------------------------------------||-7-7-7-7-7-7-7-7-7-7-7-7-7-7-7-7--4-4--4--4-4-4-4-4-0-0-0-0-0-0-0-0-||-7-7-7-7-7-7-7-7-7-7-7-7-7-7-7-7--4-4--4--4-4-4-4-4-0-0-0-0-0-0-0-0-||-7-7-7-7-7-7-7-7-7-7-7-7-7-7-7-7--4-4--4--4-4-4-4-4-0-0-0-0-0-0-0-0-|
|-----------------------||-----------------------||-----------------------||-2-2-2-2--4-4--4-4-4-4-||-2-2-2-2--4-4--4-4-4-4-||-2-2-2-2--4-4--4-4-4-4-|
Guitar 1 plays all of that 4 times
Verse 1, GUITAR 2:Slide in between each octave chord|--------------------------------------------------||--------------------------------------------------||-14-14-16-16-18-18-19-19-18-18-16-16-14-16-16-14--||--x--x--x--x--x--x--x--x--x--x--x--x--x--x--x--x--||-12-12-14-14-16-16-17-17-16-16-14-14-12-14-14-12--||--------------------------------------------------|
|---------------------------------------------------||---------------------------------------------------||-11-11-11-11-11-11-11-11-11-11--9--6--6--6^r-6-6-6-||--x--x--x--x--x--x--x--x--x--x--x--x--x--x---x-x-x-||--9--9--9--9--9--9--9--9--9--9--7--4--4--4^r-4-4-4-||---------------------------------------------------|
|------------------------------------||------------------------------------||-14-14--16--18--16--14--14-14-16-14-||--x--x---x---x---x---x---x--x--x--x-||-12-12--14--16--14--12--12-12-14-12-||------------------------------------|
Guitar 2 plays all of that twice, then does this:|-------------------------------------------||-------------------------------------------||-14-14-16-16-18-18-19-19-21-21-19-19-18-16-||--x--x--x--x--x--x--x--x--x--x--x--x--x--x-| x3|-12-12-14-14-16-16-17-17-19-19-17-17-16-14-||-------------------------------------------|
Chorus, BOTH GUITARS:|------------------------------------------------------------------||------------------------------------------------------------------||------------------------------------------------------------------||-2-2-2-2-2-2-2~-4-4-4-4-4-4-4--4--4--0-0-0-0-0-0-0--0-0-0-0-0-0-0-||-2-2-2-2-2-2-2~-4-4-4-4-4-4-4--4--4--0-0-0-0-0-0-0--0-0-0-0-0-0-0-||-2-2-2-2-2-2-2~-4-4-4-4-4-4-4--4--4--0-0-0-0-0-0-0--0-0-0-0-0-0-0-|PM- - - - - - - - - - - - - - - - - - - - - - - -
|---------------------------------------------------||---------------------------------------------------||---------------------------------------------------||-2-2-2-2-2-2-4~-4-4-4-4-4-4-4--4--4--0-0-0-0-0-0-0-||-2-2-2-2-2-2-2~-4-4-4-4-4-4-4--4--4--0-0-0-0-0-0-0-||-2-2-2-2-2-2-2~-4-4-4-4-4-4-4--4--4--0-0-0-0-0-0-0-|PM- - - - - - - - - - - - - - - - - - -
Then guitar 2 plays this funky little thing:|----------------||----------------||-14-13-18-14-13-||--x--x--x--x--x-||-12-11-16-12-11-||----------------|
Post chorus, GUITAR 1:
|------------------------------------------------------------||------------------------------------------------------------||------------------------------------------------------------||-4-4-4-4-4-4-4-4-4-4-4-4-4-4-4-4-4--4-4-4-4-4-4-4-4-4-4-4-2-||-4-4-4-4-4-4-4-4-4-4-4-4-4-4-4-4-4--2-2-2-2-2-4-2-2-2-2-2-2-||-4-4-4-4-4-4-4-4-4-4-4-4-4-4-4-4-4--2-2-2-2-2-2-2-2-2-2-2-2-| - - - - - - - -
|-------------------------------------------------------------------||-------------------------------------------------------------------||-------------------------------------------------------------------||-0-0-0-0-0-0-0-0-0-0-0-0-0-0-0-0-0--4-4--7-7--9-9--12-12--12-12----||-0-0-0-0-0-0-0-0-0-0-0-0-0-0-0-0-0--4-4--7-7--9-9--12-12--12-12----||-0-0-0-0-0-0-0-0-0-0-0-0-0-0-0-0-0--4-4--7-7--9-9--12-12--12-12----|
|------------------------------------------------------------||------------------------------------------------------------||------------------------------------------------------------||-4-4-4-4-4-4-4-4-4-4-4-4-4-4-4-4-4--4-4-4-4-4-4-4-4-4-4-4-2-||-4-4-4-4-4-4-4-4-4-4-4-4-4-4-4-4-4--2-2-2-2-2-4-2-2-2-2-2-2-||-4-4-4-4-4-4-4-4-4-4-4-4-4-4-4-4-4--2-2-2-2-2-2-2-2-2-2-2-2-| - - - - - - - -
|-------------------------------------------------------------------||-------------------------------------------------------------------||-------------------------------------------------------------------||-0-0-0-0-0-0-0-0-0-0-0-0-0-0-0-0-0--4-4--7-7--9-9--12-12--12-12----||-0-0-0-0-0-0-0-0-0-0-0-0-0-0-0-0-0--4-4--7-7--9-9--12-12--12-12----||-0-0-0-0-0-0-0-0-0-0-0-0-0-0-0-0-0--4-4--7-7--9-9--12-12--12-12----|
|--------------------------------------------------------------||--------------------------------------------------------------||--------------------------------------------------------------||-4-4--7-7--9-9--12-12--12-12---4-4--7-7--9-9--12-12--12-12----||-4-4--7-7--9-9--12-12--12-12---4-4--7-7--9-9--12-12--12-12----||-4-4--7-7--9-9--12-12--12-12---4-4--7-7--9-9--12-12--12-12----|
|--------------------------------------------------------------------||--------------------------------------------------------------------||--------------------------------------------------------------------||-7-7-7-7-7-7-7-7-7-7-7-7-7-7-7-7-7-7-7-7-7-7-7-7-7-7-7-7-7-7-7-7-7-7||-7-7-7-7-7-7-7-7-7-7-7-7-7-7-7-7-7-7-7-7-7-7-7-7-7-7-7-7-7-7-7-7-7-7||-7-7-7-7-7-7-7-7-7-7-7-7-7-7-7-7-7-7-7-7-7-7-7-7-7-7-7-7-7-7-7-7-7-7|
Post chorus, GUITAR 2:
|---------------------------------------------------||---------------------------------------------------||-14-14-14-14-14-14-14-14-14-14-14-14-9-9-9-9-9-9-9-||--x--x--x--x--x--x--x--x--x--x--x--x-x-x-x-x-x-x-x-||-12-12-12-12-12-12-12-12-12-12-12-12-7-7-7-7-7-7-7-||---------------------------------------------------|
|-------------------------||-------------------------||-------------------------||-4-4-4-4-4-4-4-4-4-4-4-2-||-2-2-2-2-2-4-2-2-2-2-2-2-||-2-2-2-2-2-2-2-2-2-2-2-2-| - - - - - - - -
|-------------------------------------------------------------------||-------------------------------------------------------------------||-7-7-7-7-7-7-7-7-7-7-7-7-7-7-7-7-7---------------------------------||-x-x-x-x-x-x-x-x-x-x-x-x-x-x-x-x-x--4-4--7-7--9-9--12-12--12-12----||-5-5-5-5-5-5-5-5-5-5-5-5-5-5-5-5-5--4-4--7-7--9-9--12-12--12-12----||-0-0-0-0-0-0-0-0-0-0-0-0-0-0-0-0-0--4-4--7-7--9-9--12-12--12-12----|
|---------------------------------------------------||---------------------------------------------------||-14-14-14-14-14-14-14-14-14-14-14-14-9-9-9-9-9-9-9-||--x--x--x--x--x--x--x--x--x--x--x--x-x-x-x-x-x-x-x-||-12-12-12-12-12-12-12-12-12-12-12-12-7-7-7-7-7-7-7-||---------------------------------------------------|
|-------------------------||-------------------------||-------------------------||-4-4-4-4-4-4-4-4-4-4-4-2-||-2-2-2-2-2-4-2-2-2-2-2-2-||-2-2-2-2-2-2-2-2-2-2-2-2-| - - - - - - - -
|-------------------------------------------------------------------||-------------------------------------------------------------------||-7-7-7-7-7-7-7-7-7-7-7-7-7-7-7-7-7---------------------------------||-x-x-x-x-x-x-x-x-x-x-x-x-x-x-x-x-x--4-4--7-7--9-9--12-12--12-12----||-5-5-5-5-5-5-5-5-5-5-5-5-5-5-5-5-5--4-4--7-7--9-9--12-12--12-12----||-0-0-0-0-0-0-0-0-0-0-0-0-0-0-0-0-0--4-4--7-7--9-9--12-12--12-12----|
|--------------------------------------------------------------||--------------------------------------------------------------||--------------------------------------------------------------||-4-4--7-7--9-9--12-12--12-12---4-4--7-7--9-9--12-12--12-12----||-4-4--7-7--9-9--12-12--12-12---4-4--7-7--9-9--12-12--12-12----||-4-4--7-7--9-9--12-12--12-12---4-4--7-7--9-9--12-12--12-12----|
|---------------------------------------------------------------------------||10-10-10-10-10-10-10-10-9-9-9-9-9-9-9-9-9-7-7-7-7-7-7-7-7-6-6-6-6-6-6-6-6-6||-x--x--x--x--x--x--x--x-x-x-x-x-x-x-x-x-x-x-x-x-x-x-x-x-x-x-x-x-x-x-x-x-x-x||-7--7--7--7--7--7--7--7-6-6-6-6-6-6-6-6-6-4-4-4-4-4-4-4-4-3-3-3-3-3-3-3-3-3||---------------------------------------------------------------------------||---------------------------------------------------------------------------|
Then there's bass line and some clapping and feedback. When that ends, both guitars do this:
|------------------------||------------------------||------------------------||-2-2--2--4-4-4--0-0-0-0-||-2-2--2--4-4-4--0-0-0-0-||-2-2--2--4-4-4--0-0-0-0-|
Verse 2:GUITAR 1|--------------------------------------------------------------------||--------------------------------------------------------------------||--------------------------------------------------------------------||-7-7-7-7-7-7-7-7-7-7-7-7-7-7-7-7--4-4--4--4-4-4-4-4-0-0-0-0-0-0-0-0-||-7-7-7-7-7-7-7-7-7-7-7-7-7-7-7-7--4-4--4--4-4-4-4-4-0-0-0-0-0-0-0-0-||-7-7-7-7-7-7-7-7-7-7-7-7-7-7-7-7--4-4--4--4-4-4-4-4-0-0-0-0-0-0-0-0-|
|-----------------------||-----------------------||-----------------------||-2-2-2-2--4-4--4-4-4-4-||-2-2-2-2--4-4--4-4-4-4-||-2-2-2-2--4-4--4-4-4-4-|
Guitar 1 plays that twice, while guitar 2 does this (pay attention, it's not exactly the as the first verse):
Slide in between each octave chord|--------------------------------------------------||--------------------------------------------------||-14-14-16-16-18-18-19-19-18-18-16-16-14-16-16-14--||--x--x--x--x--x--x--x--x--x--x--x--x--x--x--x--x--||-12-12-14-14-16-16-17-17-16-16-14-14-12-14-14-12--||--------------------------------------------------|
|---------------------------------------------------||---------------------------------------------------||-11-11-11-11-11-11-11-11-11-11--9--6--6--6^r-6-6-6-||--x--x--x--x--x--x--x--x--x--x--x--x--x--x---x-x-x-||--9--9--9--9--9--9--9--9--9--9--7--4--4--4^r-4-4-4-||---------------------------------------------------|
|------------------------------------||------------------------------------||-14-14--16--18--16--14--14-14-16-14-||--x--x---x---x---x---x---x--x--x--x-||-12-12--14--16--14--12--12-12-14-12-||------------------------------------|
|-------------------------------------------||-------------------------------------------||-14-14-16-16-18-18-19-19-21-21-19-19-18-16-||--x--x--x--x--x--x--x--x--x--x--x--x--x--x-| x3|-12-12-14-14-16-16-17-17-19-19-17-17-16-14-||-------------------------------------------|
2nd Chorus, BOTH GUITARS:|------------------------------------------------------------------||------------------------------------------------------------------||------------------------------------------------------------------||-2-2-2-2-2-2-2~-4-4-4-4-4-4-4--4--4--0-0-0-0-0-0-0--0-0-0-0-0-0-0-||-2-2-2-2-2-2-2~-4-4-4-4-4-4-4--4--4--0-0-0-0-0-0-0--0-0-0-0-0-0-0-||-2-2-2-2-2-2-2~-4-4-4-4-4-4-4--4--4--0-0-0-0-0-0-0--0-0-0-0-0-0-0-|PM- - - - - - - - - - - - - - - - - - - - - - - -
|------------------------------------||------------------------------------||------------------------------------||-2-2-2-2-2-2-4~-4-4-4-4-4-4-4--4--4-||-2-2-2-2-2-2-2~-4-4-4-4-4-4-4--4--4-||-2-2-2-2-2-2-2~-4-4-4-4-4-4-4--4--4-|PM- - - - - - - - - - - -
Pre-bridge, GUITAR 1|----------------------------------------------------------------------||----------------------------------------------------------------------||--------------18~--------------14~--------------13~---------------18~-||-0-0-0-0-0-0---x--0-0-0-0-0-0---X--0-0-0-0-0-0---X---0-0-0-0-0-0---x--||-0-0-0-0-0-0--16~-0-0-0-0-0-0--12~-0-0-0-0-0-0--11~--0-0-0-0-0-0--16~-||-0-0-0-0-0-0------0-0-0-0-0-0------0-0-0-0-0-0-------0-0-0-0-0-0------|PM- - - - - - - - - - - - - - - - - - - - - - - -
Play that 2 times, then do this
|-----------------------------------------------------||-----------------------------------------------------||--------------18~--------------14~--------------13~--||-0-0-0-0-0-0---x--0-0-0-0-0-0---X--0-0-0-0-0-0---X---||-0-0-0-0-0-0--16~-0-0-0-0-0-0--12~-0-0-0-0-0-0--11~--||-0-0-0-0-0-0------0-0-0-0-0-0------0-0-0-0-0-0-------|PM- - - - - - - - - - - - - - - - - -
|---------------------------------------||---------------------------------------||-------------13-13-13--------------13~-||-0-0-0-0-0-0--x--x--x-0-0-0-0-0-0---x--||-0-0-0-0-0-0-11-11-11-0-0-0-0-0-0--11~-||-0-0-0-0-0-0----------0-0-0-0-0-0------|PM- - - - - - - - - - - -
|---------------------------------------||---------------------------------------||-------------13-13-13--------------13~-||-0-0-0-0-0-0--x--x--x-0-0-0-0-0-0---x--||-0-0-0-0-0-0-11-11-11-0-0-0-0-0-0--11~-||-0-0-0-0-0-0----------0-0-0-0-0-0------|PM- - - - - - - - - - - -
|---------------------------------------||---------------------------------------||-------------13-13-13--------------13~-||-0-0-0-0-0-0--x--x--x-0-0-0-0-0-0---x--||-0-0-0-0-0-0-11-11-11-0-0-0-0-0-0--11~-||-0-0-0-0-0-0----------0-0-0-0-0-0------|PM- - - - - - - - - - - -
Pre-bridge, GUITAR 2:
|-----------------------------------------------------------------------||--------------14~--------------10~----------------9~---------------14~-||---------------x----------------x-----------------x-----------------x--||-0-0-0-0-0-0--11~-0-0-0-0-0-0---7~--0-0-0-0-0-0---6~--0-0-0-0-0-0--11~-||-0-0-0-0-0-0------0-0-0-0-0-0-------0-0-0-0-0-0-------0-0-0-0-0-0------||-0-0-0-0-0-0------0-0-0-0-0-0-------0-0-0-0-0-0-------0-0-0-0-0-0------|PM- - - - - - - - - - - - - - - - - - - - - - - -
Play that 2 times, then do this
|------------------------------------------------------||--------------14~--------------10~----------------9~--||---------------x----------------x-----------------x---||-0-0-0-0-0-0--11~-0-0-0-0-0-0---7~--0-0-0-0-0-0---6~--||-0-0-0-0-0-0------0-0-0-0-0-0-------0-0-0-0-0-0-------||-0-0-0-0-0-0------0-0-0-0-0-0-------0-0-0-0-0-0-------|PM- - - - - - - - - - - - - - - - - -
|---------------------------------------||-------------9--9--9---------------9~--||-------------x--x--x---------------x---||-0-0-0-0-0-0-6--6--6--0-0-0-0-0-0--6~--||-0-0-0-0-0-0----------0-0-0-0-0-0------||-0-0-0-0-0-0----------0-0-0-0-0-0------|PM- - - - - - - - - - - -
|---------------------------------------||-------------9--9--9---------------9~--||-------------x--x--x---------------x---||-0-0-0-0-0-0-6--6--6--0-0-0-0-0-0--6~--||-0-0-0-0-0-0----------0-0-0-0-0-0------||-0-0-0-0-0-0----------0-0-0-0-0-0------|PM- - - - - - - - - - - -
|---------------------------------------||-------------9--9--9---------------9~--||-------------x--x--x---------------x---||-0-0-0-0-0-0-6--6--6--0-0-0-0-0-0--6~--||-0-0-0-0-0-0----------0-0-0-0-0-0------||-0-0-0-0-0-0----------0-0-0-0-0-0------|PM- - - - - - - - - - - -
Bridge GUITAR 2:|----------------------------||----------------------------||----------------------------||-6-6-6-6-6--6-6/7-7-7-7-7-7-||----------------------------||----------------------------|
You can play this through the whole thing and it will sound fine.There's another guitar with a chorus effect that comes in about halfway through that Itake the time to figure out.|----------------------------------------------------------------------||-12/14-14-14-14-12-10-14/17-17-17-17-15-14-14h15-15-15-15-14-12-12/10-||----------------------------------------------------------------------||----------------------------------------------------------------------||----------------------------------------------------------------------||----------------------------------------------------------------------|
End bridge on this:|-------||-------||-------||-5-5-5-||-5-5-5-||-5-5-5-|
Outro, GUITAR 1:
|---------------------------------------------------------------------------||---------------------------------------------------------------------------||---------------------------------------------------------------------------||-4-4-4-4-4-4-4-4-4-4/7-7-7-7-7-7-7-7-7-7/2-2-2-2-2-2-2-2-2-2/7-7-7-7-7-7-7-||-4-4-4-4-4-4-4-4-4-4/7-7-7-7-7-7-7-7-7-7/2-2-2-2-2-2-2-2-2-2/5-5-5-5-5-5-5-||-4-4-4-4-4-4-4-4-4-4/7-7-7-7-7-7-7-7-7-7/2-2-2-2-2-2-2-2-2-2/5-5-5-5-5-5-5-|
|-------||-------||-------||-5-5-5-||-5-5-5-||-5-5-5-|Play all of that 4 times.
Outro, GUITAR 2:|-------------------------------------------------------------------||-------------------------------------------------------------------||-14-14-14-14-14-14/9-9-9-9-9-9/18-18-18-18-18-18/14-14-14-14-14-14-||--x--x--x--x--x--x/x-x-x-x-x-x/-x--x--x--x--x--x/-x--x--x--x--x--x-||-12-12-12-12-12-12/7-7-7-7-7-7/16-16-16-16-16-16/12-12-12-12-12-12-||-------------------------------------------------------------------|
|----------------------------------------------------------||----------------------------------------------------------||-14-14-14-14-14-14/11-11-11-11-11-11/7-7-7-7-7-7----7-7-7-||--x--x--x--x--x--x--x--x--x--x--x--x-x-x-x-x-x-x----x-x-x-||-12-12-12-12-12-12/-9--9--9--9--9--9/5-5-5-5-5-5----5-5-5-||----------------------------------------------------5-5-5-|Play all of that 4 times.
And that's it. Fun to play. Please rate
Tap to rate this tab
 
# A B C D E F G H I J K L M N O P Q R S T U V W X Y Z