Brian Mcknight - Home tab

HOME (as performed on Music in High Places) 
by Brian McKnight

Tabbed by Euroy Tan
Please send questions and/or comments: roypatrickt@hotmail.com


INTRO

|-------0-----0------0------0------0------0--||------0------2-----0------0------0------0---||-----1------2-----4------6------4------4----||----4------2-----4------6------4------4-----||---2-------------------0--------------------||--0-------2-----4-------------4------3------| Da da da da da da dum doo...
|-------3------2---||------3------2----||-----2------2-----||----2------2------||---3------2-------||------------------|
VERSE
|-------0------0------0-----------||------0------2------0---5--(5)---||-----1------2------4----6--(6)---||----4------2------4-----4--(4)---||---2--------------------4---4----||--0-------2------4---------------| Thinkin' back...
|-------0-------2-------0--3--4---||------0-0-----2-------0---3--2---||-----2-------2-------1----2--2---||----2-------2-------4-----2--2---||-----------2-------2------3--2---||---2--------------0--------------| said...
|-------0------0------0-----------||------0------2------0---5--(5)---||-----1------2------4----6--(6)---||----4------2------4-----4--(4)---||---2--------------------4---4----||--0-------2------4---------------| I let go...
|-------5-----3-------------||------5---5--3---------2---||-----4----6--2----2----2---||----4-----4--2---2----2----||---5------4--3-------2-----||----------------2----------| but now...
CHORUS
|-------0-----0-----0------0----------------------------2--||------0-----2-----0------0------0------3-----2h3p2----2---||-----1-----2-----4------2------4------4-----2--------2----||----4-----2-----4------2------4------4-----2--------2-----||---2------------------0-------------4--------------2------||--0------2-----4-------------4------------2---------------| Hold me, mold me...
|-------0-----0-----0--0------------4-----2------0------2--||------0-----2-----0---0-----0-----3-----2------22-----2---||-----1-----2-----4----2----4-----4-----2------2------2----||----4-----2-----4-----2---4-----4-----2------2------2-----||---2------------------0--------4-------------------2------||--0------2-----4---------4-----------2------2-------------| Shape me, make me...
CHORUS OUTRO
|-------0-----0------3------2---| |------0------2-----3------2----| |-----1------2-----2------2-----| |----4------2-----2------2------| |---2------------3------2-------| |--0-------2--------------------|
REPEAT VERSE REPEAT CHORUS REPEAT CHORUS OUTRO END
|-------0-----0---||------0------0---||-----1-------1---||----4--------4---||---2------2--2---||--0------0---0---|
NOTE: The second verse and chorus have subtle differences in Brian's arpeggio playing, but otherwise you can just play it the same way as the verse and chorus. Sorry, there's just too much to write out.
Tap to rate this tab
 
# A B C D E F G H I J K L M N O P Q R S T U V W X Y Z