Stray Cat Strut tab with lyrics by Brian Setzer Orchestra - Easy chords and tabs for guitar

Brian Setzer Orchestra – Stray Cat Strut tab

                          ----Brian Setzer Orchestra----
                              ---Stray Cat Strut---

First of all, This song was origianlly performed by the Stray Cats
themselves but now its a Brian Setzer Orchestra song......

If you want to hear a really good version of this song go to this link:

http://www.youtube.com/watch?v=ODFrMvLYkMY&mode=related&search=

Ok sooooo lets start.......

Tabbed By: mucho-mum
Date: May 29th Monday 2007 3:14PM

Intro:

-|---8~--------------------------------------|-|---8~--8----------------------8------------|-|---------10p--8-10-8--------8-------10---8^|-|--------------------------9------11----7---|-|------------------------10-----------------|-|-------------------------------------------|
Intro 2:
-|---8--------8--------6--------5----|-|---8--------8--------6--------5----|-|---8--------9--------7--------6----|-|--10--------8--------6--------5----|-|--10--------8--------6--------5----|-|---8--------6--------4--------3----|
Verse:
-|---8--8--6--6--4--4--3--3-3|-|---8--8--6--6--4--4--3--3-3|-|---8--8--7--7--5--5--4--4-4|-|--10-10--8--8--6--6--5--5-5|-|--10-10--8--8--6--6--5--5-5|-|---8--8--6--6--4--4--3--3-3|
-|---8---------6---------4---------3|-|---8---------6---------4---------3|-|---8---------7---------5---------4|-|--10---------8---------6---------5|-|--10---------8---------6---------5|-|---8---------6---------4---------3|
-|---8--8--6--6--4--4--3--3-3|-|---8--8--6--6--4--4--3--3-3|-|---8--8--7--7--5--5--4--4-4|-|--10-10--8--8--6--6--5--5-5|-|--10-10--8--8--6--6--5--5-5|-|---8--8--6--6--4--4--3--3-3|
-|---8---------6---------4---------3|-|---8---------6---------4---------3|-|---8---------7---------5---------4|-|--10---------8---------6---------5|-|--10---------8---------6---------5|-|---8---------6---------4---------3|
-|---8--8--6--6--4--4--3--3-3--8\-|-|---8--8--6--6--4--4--3--3-3--8\-|-|---8--8--7--7--5--5--4--4-4--8\-|-|--10-10--8--8--6--6--5--5-5-10\-|-|--10-10--8--8--6--6--5--5-5-10\-|-|---8--8--6--6--4--4--3--3-3--8\-|
Chorus: Fm Em C# C
-|--8--8--6--6--4--4--3--3-3|-|--8--8--6--6--4--4--3--3-3|-|-10-10--8--8--6--6--5--5-5|-|-10-10--8--8--6--6--5--5-5| X 2-|--8--8--6--6--4--4--3--3-3|-|--8--8--6--6--4--4--3--3-3|
-|--8--8--6--6--4--4--3--3-3--8\-|-|--8--8--6--6--4--4--3--3-3--8\-|-|-10-10--8--8--6--6--5--5-5-10\-|-|-10-10--8--8--6--6--5--5-5-10\-|-|--8--8--6--6--4--4--3--3-3--8\-|-|--8--8--6--6--4--4--3--3-3--8\-|
-|---8--8------6--6------4--4------3--3|-|---8--8------6--6------4--4------3--3|-|---8--8------7--7------5--5------4--4|-|--10-10------8--8------6--6------5--5| X 2-|--10-10------8--8------6--6------5--5|-|---8--8------6--6------4--4------3--3|
Solo/Fill:
-|------8--------------------------------|-|------8--------------------------------|-|-10~-----10b-8-------------------------|-|---------------10--8--6--8--6h8-5h6p5tr|-|---------------------------------------|-|---------------------------------------|
-|-------------------------------------2-1-|-|-------------------------------1--4------|-|---------------0-----------0h1-----------|-|------0--1--3-----1--0-------------------|-|-2h-3--------------------3----------------|-|-----------------------------------------|
-|--8---8--6--6--4--4--3|-|--9---9--7--7--5--5--4|-|--9---9--7--7--5--5--4|-|-10--10--8--8--6--6--5|-|----------------------|-|----------------------|
-|--------------------------8-------------------|-|----------------------------------------------|-|-----------------8--11b-----8b----------8---10|-|----------7---10--------------10----10---10---|-|---6---9--------------------------------------|-|-8--------------------------------------------|
Verse: -|-8--8--10--8--8--8--8--8|-|-9--9---9--9--9--9--9--9|-|10-10--10-10-10-10-10-10|-|------------------------|-|------------------------|-|------------------------|
-|-8--10--8--8-8--8\7-8\7-8|-|-8---8--8--8-8--8\7-8\7-8|-|-8---8--8--8-8--8\7-8\7-8|-|-------------------------|-|-------------------------|-|-------------------------|
-|-8--8--10--8--8--8--8--8|-|-9--9---9--9--9--9--9--9|-|10-10--10-10-10-10-10-10|-|------------------------|-|------------------------|-|------------------------|
-|-10-10-10-10--11-11-11-11|-|-10-10-10-10--11-11-11-11|-|-11-11-11-11--12-12-12-12|-|-------------------------|-|-------------------------|-|-------------------------|
-|---8---------6---------4---------3|-|---8---------6---------4---------3|-|---8---------7---------5---------4|-|--10---------8---------6---------5|-|--10---------8---------6---------5|-|---8---------6---------4---------3|
-|---8---------6---------4---------3|-|---8---------6---------4---------3|-|---8---------7---------5---------4|-|--10---------8---------6---------5|-|--10---------8---------6---------5|-|---8---------6---------4---------3|
-|---8--8------6--6------4--4------3--3---8\--|-|---8--8------6--6------4--4------3--3---8\--|-|---8--8------7--7------5--5------4--4---8\--|-|--10-10------8--8------6--6------5--5--10\--|-|--10-10------8--8------6--6------5--5--10\--|-|---8--8------6--6------4--4------3--3---8\--|
-|---8--8--6--6--4--4--3--3-|-|---8--8--6--6--4--4--3--3-|-|---8--8--7--7--5--5--4--4-|-|--10-10--8--8--6--6--5--5-|-|--10-10--8--8--6--6--5--5-|-|---8--8--6--6--4--4--3--3-|
-|---8--8--6--6--4--4--3--3-|-|---8--8--6--6--4--4--3--3-|-|---8--8--7--7--5--5--4--4-|-|--10-10--8--8--6--6--5--5-|-|--10-10--8--8--6--6--5--5-|-|---8--8--6--6--4--4--3--3-|
-|--------------8--------|-|-8----9--8----8----9--8| -|-8----8--8----8----8--8|-|-----------------------| -|-----------------------|-|-----------------------|
Then another solo/lead break:
-|8~-----11~--10~---8~-----------------------------|-|8~-----10~---9~---8~---8----------------4-------3|-|-----------------------------10p-8----5-------4--|-|------------------------------------6-------5----|-|-------------------------------------------------|-|-------------------------------------------------|
-|-8~-----11~----10~|-|-8~-----10~-----9~|-|------------------|-|------------------|-|------------------|-|------------------|
-|8--11-10-8-------------8------------------------------|-|-----------11-10-8------------------------------------|-|-------------------10p---10p-8-10-8-------8~-8--------|-|------------------------------------10---------10-8---|-|---------------------------------------10-----------10|-|------------------------------------------------------|
Chrous:
-|-8--8--10--8--8--8--8--8|-|-9--9---9--9--9--9--9--9|-|10-10--10-10-10-10-10-10|-|------------------------|-|------------------------|-|------------------------|
-|-8--10--8--8-8--8\7-8\7-8|-|-8---8--8--8-8--8\7-8\7-8|-|-8---8--8--8-8--8\7-8\7-8|-|-------------------------|-|-------------------------|-|-------------------------|
-|-8--8--10--8--8--8--8--8|-|-9--9---9--9--9--9--9--9|-|10-10--10-10-10-10-10-10|-|------------------------|-|------------------------|-|------------------------|
-|-10-10-10-10--11-11-11-11|-|-10-10-10-10--11-11-11-11|-|-11-11-11-11--12-12-12-12|-|-------------------------|-|-------------------------|-|-------------------------|
Verse:
-|---8---------6---------4---------3|-|---8---------6---------4---------3|-|---8---------7---------5---------4|-|--10---------8---------6---------5|-|--10---------8---------6---------5|-|---8---------6---------4---------3|
-|---8---------6---------4---------3|-|---8---------6---------4---------3|-|---8---------7---------5---------4|-|--10---------8---------6---------5|-|--10---------8---------6---------5|-|---8---------6---------4---------3|
Cm Bb G# G-|---8--8------6--6------4--4------3--3---8\--|-|---8--8------6--6------4--4------3--3---8\--|-|---8--8------7--7------5--5------4--4---8\--|-|--10-10------8--8------6--6------5--5--10\--|-|--10-10------8--8------6--6------5--5--10\--|-|---8--8------6--6------4--4------3--3---8\--|
Then repeat the bass line again until THE OUTRO:
-|-8--------------------------------10tr-----10~-|-|----------------------------------10tr-----10~-|-|---10p-8-10-8---------------------11tr-----11~-|-|---------------10-8----8-9-10------------------|-|--------------------10-------------------------|
Thanks guys..... Please leave a comment if you have anything to say... Sweet thanks guys! Tabbed by: mucho-mum Date: May 29th Monday 2007 3:14PM -|-----------------------------------------------|
Please rate this tab:
x1.0