Bring Me The Horizon - Shadow Moses tab version 1

Bring Me The Horizon - Shadow Moses

Tuning - Drop A#

This song's actually really simple to play compared to older songs

Intro

-------------------------------------|-------------------------------------|-------------------------------------|--0---8--8----8----5--7--------------| x2--0---8--8----8----5--7--------------|--0---8--5----8----5--7--------------|
---------------------------------|---------------------------------|---------------------------------|---------------------------------|---------------------------------|--00-00-0-000000-00-00-0---------|
Pre Verse
-------------------------------------------------------------------|-------------------------------------------------------------------|-------------------------------------------------------------------|--0-0-0--00-00-00--00000--00-00-00--1-0-3-00-00-00----0000--00-00--|--0-0-0--00-00-00--00000--00-00-00--1-0-3-00-00-00----0000--00-00--|--0-0-0--00-00-00--00000--00-00-00--1-0-3-00-00-00----0000--00-00--|
---------------------------------------------------------|---------------------------------------------------------|---------------------------------------------------------|--0-0-0--00-00-00--00000--00-00-00--1-0-1-3-1-0-4-3-0-1--|--0-0-0--00-00-00--00000--00-00-00--1-0-1-3-1-0-4-3-0-1--|--0-0-0--00-00-00--00000--00-00-00--1-0-1-3-1-0-4-3-0-1--|
Verse
----------------------------------------------|----------------------------------------------|----------------------------------------------|---0-0-0--0-1-0-4-0-1--0-0-0--0-1-0-4-0-3/13--|---0-0-0--0-1-0-4-0-1--0-0-0--0-1-0-4-0-3/13--|---0-0-0--0-1-0-4-0-1--0-0-0--0-1-0-4-0-3/13--|
x2----------------------------------------------|----------------------------------------------|----------------------------------------------|--0-0-0--0-1-0-4-0-1--0-1-0-3-1-0-4-3-0-1-----|--0-0-0--0-1-0-4-0-1--0-1-0-3-1-0-4-3-0-1-----|--0-0-0--0-1-0-4-0-1--0-1-0-3-1-0-4-3-0-1-----|
Breakdown
-------------------------------------------------------------------|-------------------------------------------------------------------|-------------------------------------------------------------------|----000--00-00-00------000-00-00-00-----000-00-00--1-1-1-1-4-4-4-4-|-5*-000--00-00-00--5*--000-00-00-00-5*--000-00-00--1-1-1-1-4-4-4-4-|----000--00-00-00------000-00-00-00-----000-00-00--1-1-1-1-4-4-4-4-|
------------------------------------------------------------------|------------------------------------------------------------------|------------------------------------------------------------------|----000--00-00-00------000-00-00-00-----000-00-00-00--------------|-5*-000--00-00-00--5*--000-00-00-00-5*--000-00-00-00--------------|----000--00-00-00------000-00-00-00-----000-00-00-00--------------|
Pre Chorus
--------0------------0----------|------3---3--------3---3--------|----3-------3----2-------2------|--------------------------------|--1-----------0-----------------|--------------------------------|
Chorus Rhythm
-------------------------------------|-------------------------------------|-------------------------------------|--0---8--8----8----5--7--------------| x4--0---8--8----8----5--7--------------|--0---8--5----8----5--7--------------|
Lead
--------8----------------5-----------3-----|----6-----6-----------6----6-----3-----3---|--7---7-----7--x6---7---7----7-5---5-----5-|-------------------------------------------| x4-------------------------------------------|-------------------------------------------|
-------|-------|-------|-00000--00000--00000-
Breakdown 2
---------------------------------------------------------------|---------------------------------------------------------------|---------------------------------------------------------------|--1-0-3-00-00-00----000-00-00--0-0-0-00-00-00--00000-00-00-00--|--1-0-3-00-00-00----000-00-00--0-0-0-00-00-00--00000-00-00-00--|--1-0-3-00-00-00----000-00-00--0-0-0-00-00-00--00000-00-00-00--|
-----------------------|-----------------------|-----------------------|--1-0-1-3-1-0-4-3-0-1--|--1-0-1-3-1-0-4-3-0-1--|--1-0-1-3-1-0-4-3-0-1--|
----------------------------------------------|----------------------------------------------|----------------------------------------------|---0-0-0--0-1-0-4-0-1--0-0-0--0-1-0-4-0-3/13--| x4---0-0-0--0-1-0-4-0-1--0-0-0--0-1-0-4-0-3/13--|---0-0-0--0-1-0-4-0-1--0-0-0--0-1-0-4-0-3/13--|
Chorus Rhythm
-------------------------------------|-------------------------------------|-------------------------------------|--0---8--8----8----5--7--------------| x4--0---8--8----8----5--7--------------|--0---8--5----8----5--7--------------|
Lead
--------8----------------5-----------3-----|----6-----6-----------6----6-----3-----3---|--7---7-----7--x6---7---7----7-5---5-----5-|-------------------------------------------| x8-------------------------------------------|-------------------------------------------|
Ending
--------------------------------------------------------------------|--------------------------------------------------------------------|--------------------------------------------------------------------|----000--00-00-00------000-00-00-00-----000-00-00--1-1-1-1-4-4-4-4--| x2-5*-000--00-00-00--5*--000-00-00-00-5*--000-00-00--1-1-1-1-4-4-4-4--|----000--00-00-00------000-00-00-00-----000-00-00--1-1-1-1-4-4-4-4--|
Thanks For Reading :3 x
Tap to rate this tab
 
# A B C D E F G H I J K L M N O P Q R S T U V W X Y Z