Empire tab with lyrics by Bring Me The Horizon - Easy chords and tabs for guitar

Bring Me The Horizon – Empire tab


BRING ME THE HORIZON

EMPIRE

TABBED BY andherebrace

drop C




0:01W/EQ FILTER-------------------------------------------|-------------------------------------------|-------------------------------------------|--8----------------------------------------|----6-5------------------------------------|--------0-0-0-0-0-0-0-0-0-0-0-0-0-0-0-0-0--|
* * * * *-------------------------------------------|-------------------------------------------|-------------------------------------------|--8----------------------------------------|----6-5------------------------------------|--------0-0-0-0-0-0-0-0-0-0-0-0-0-0-0-0-0--|
* * * * *-------------------------------------------|-------------------------------------------|-------------------------------------------|--8----------------------------------------|----6-5------------------------------------|--------0-0-0-0-0-0-0-0-0-0-0-0-0-0-0-0-0--|
* * * * *-------------------------------------------|-------------------------------------------|-------------------------------------------|--8----------------------------------------|----6-5------------------------------------|--------0-0-0-0-0-0-0-0-0-0-0-0-0-0-0-0---| * * * * * |
0:21
PICK PINCH HARMONIC FURTHER UP THAN NORMAL ABOUT AT THE EDGE OF WHERE THE FRETBOARD STARTSSO THAT THE PITCH IS IDENTICAL TO A 13TH FRET OF 1ST STRING NOTE #--------------------------------------------------|--------------------------------------------------|----------------------------------------------PH--|--8-------------------------------------------3---|----6-5---------------------------1---------------|--------0-0-0-0-0-0-0-0-0-0-0-0-0---1-0-1-0-0-----| * * * * * *
#--------------------------------------------------|--------------------------------------------------|----------------------------------------------PH--|--8-------------------------------------------3---|----6-5---------------------------1---------------|--------0-0-0-0-0-0-0-0-0-0-0-0-0---1-0-1-0-0-----| * * * * * *
#--------------------------------------------------|--------------------------------------------------|----------------------------------------------PH--|--8-------------------------------------------3---|----6-5---------------------------1---------------|--------0-0-0-0-0-0-0-0-0-0-0-0-0---1-0-1-0-0-----|
* * * * * * #-------------------------------------------------|-------------------------------------------------|---------------------------------------------PH--|--8------------------------------------------3---|----6-5--------------------------1---------------|--------0-0-0-0-0-0-00-0-0-0-0-0---1-0-1-0-0-----| * * * * * *
0:41
L------------------------------------------------------------------|------------------------------------------------------------------|--^-----------^-----------^-----------^-----------^-----^---------|-8-0---------8-0---------8-0---------8-0---------8-0---8-0--------|------------------------------------------------------------------|-----0-0-0-0-----0-0-0-0-----0-0-0-0-----0-0-0-0-----0-----0-8/12-|
------------------------------------------------------------------|------------------------------------------------------------------|--^-----------^-----------^-----------^-----------^-----^---------|-8-0---------8-0---------8-0---------8-0---------8-0---8-0--------|------------------------------------------------------------------|-----0-0-0-0-----0-0-0-0-----0-0-0-0-----0-0-0-0-----0-----0-8/12-|
------------------------------------------------------------------|------------------------------------------------------------------|--^-----------^-----------^-----------^-----------^-----^---------|-8-0---------8-0---------8-0---------8-0---------8-0---8-0--------|------------------------------------------------------------------|-----0-0-0-0-----0-0-0-0-----0-0-0-0-----0-0-0-0-----0-----0-8/12-|
------------------------------------------------------------------|------------------------------------------------------------------|--^-----------^-----------^-----------^-----------^-----^---------|-8-0---------8-0---------8-0---------8-0---------8-0---8-0--------|------------------------------------------------------------------|-----0-0-0-0-----0-0-0-0-----0-0-0-0-----0-0-0-0-----0-----0-8/12-|
1:01
B-----------------------------------------------------------|-----------------------------------------------------------|-----------------------------------------------------------|-----------------------------------------------------------|-1-------------------1-------------------1-----1-----1/5---|---1-0-0-0-------------1-0-0-0-------------1-0---1-0-------| | |
-----------------------------------------------------------|-----------------------------------------------------------|-----------------------------------------------------------|-----------------------------------------------------------|-1-------------------1-------------------1-----1-----1/5---|---1-0-0-0-------------1-0-0-0-------------1-0---1-0-------| | |
1;11
L------------------------------------------------------------------|------------------------------------------------------------------|--^-----------^-----------^-----------^-----------^-----^---------|-8-0---------8-0---------8-0---------8-0---------8-0---8-0--------|------------------------------------------------------------------|-----0-0-0-0-----0-0-0-0-----0-0-0-0-----0-0-0-0-----0-----0-8/12-|
R-------------------------------------------------------------------|-------------------------------------------------------------------|-------------------------------------------------------------------|-------------------------------------------------------------------|-1-----------------------1-------------------------1-----1-----1/5-|---1-0-0-0-----------------1-0-0-0-------------------1-0---1-0-----| | |
L------------------------------------------------------------------|------------------------------------------------------------------|--^-----------^-----------^-----------^-----------^-----^---------|-8-0---------8-0---------8-0---------8-0---------8-0---8-0--------|------------------------------------------------------------------|-----0-0-0-0-----0-0-0-0-----0-0-0-0-----0-0-0-0-----0-----0-8/12-|
R-------------------------------------------------------------------|-------------------------------------------------------------------|-------------------------------------------------------------------|-------------------------------------------------------------------|-1-----------------------1-------------------------1-----1-----1/5-|---1-0-0-0-----------------1-0-0-0-------------------1-0---1-0-----| | |
1:21
1-----------------------------------------------------------------|----------------------------10-----10-----10-----10-----11-----11|10-------------9---------------7-7----7-7----7-7----7-7----7-7---|-X-------------X-------------------------------------------------|-8-------------7-------------------------------------------------|-----------------------------------------------------------------|
2-----------------------------------------------------------------|-----------------------------------------------------------------|-----------------------------------------------------------------|-----------------------------------------------------------------|-----------------------------------------------------------------|-0---------------------------5--5--5--5--5--5--3--3--3--8--8--8--|
1-----------------------------------------------------------------------|----------------------------10-----10-----11------10-------13-------13-|10-------------9---------------7-7----7-7----12-------10------10-10----|-X-------------X-------------------------------------------------------|-8-------------7-------------------------------------------------------|-----------------------------------------------------------------------|
2-----------------------------------------------------------------|-----------------------------------------------------------------|-----------------------------------------------------------------|-----------------------------------------------------------------|-----------------------------------------------------------------|-0---------------------------5--5--5--5--5--5--3--3--3--8--8--8--|
W/PAN,DELAY
-8-----5-----8-----5-----6-----6----------------------------------|---6-----6-----6-----6-----6------8---8-8---8-6---6-6---6-5---5---|-----7-----7-----7-----7-----7------7-----7-----7-----7-----7-----|------------------------------------------------------------------|------------------------------------------------------------------|------------------------------------------------------------------|
1;51
#--------------------------------------------------|--------------------------------------------------|----------------------------------------------PH--|--8-------------------------------------------3---|----6-5---------------------------1---------------|--------0-0-0-0-0-0-0-0-0-0-0-0-0---1-0-1-0-0-----| * * * * * *
#--------------------------------------------------|--------------------------------------------------|----------------------------------------------PH--|--8-------------------------------------------3---|----6-5---------------------------1---------------|--------0-0-0-0-0-0-0-0-0-0-0-0-0---1-0-1-0-0-----| * * * * * *
#--------------------------------------------------|--------------------------------------------------|----------------------------------------------PH--|--8-------------------------------------------3---|----6-5---------------------------1---------------|--------0-0-0-0-0-0-0-0-0-0-0-0-0---1-0-1-0-0-----|
* * * * * * #--------------------------------------------------|--------------------------------------------------|----------------------------------------------PH--|--8-------------------------------------------3---|----6-5---------------------------1---------------|--------0-0-0-0-0-0-0-0-0-0-0-0-0---1-0-1-0-0-----| * * * * * *
2:11
L-----------------------------------------------------------------|-----------------------------------------------------------------|-----------------------------------------------------------------|-----------------------------------------------------------------|-1-----------1-----------1-----------1-----------1-------1-------|---1-0-0-0-0---1-0-0-0-0---1-0-0-0-0---1-0-0-0-0---1-0-0---1-0-0-|
R---------------------------------------------------------------|---------------------------------------------------------------|---------------------------------------------------------------|---------------------------------------------------------------|---------------------------------------------------------------|-0-------------------------------------------------------------|
L------------------------------------------------------------|------------------------------------------------------------|------------------------------------------------------------|------------------------------------------------------------|-1-----------1-----------1-----------1-----------1----------|---1-0-0-0-0---1-0-0-0-0---1-0-0-0-0---1-0-0-0-0---1-0-0----|
R---------------------------------------------------------------|---------------------------------------------------------------|---------------------------------------------------------------|---------------------------------------------------------------|---------------------------------------------------------------|---------------------------------------------------------------|
B-----------------------------------------------------------------|-----------------------------------------------------------------|-----------------------------------------------------------------|-----------------------------------------------------------------|-1-----------1-----------1-----------1-----------1-----1-----1/5-|---1-0-0-0-0---1-0-0-0-0---1-0-0-0-0---1-0-0-0-0---1-0---1-0-----|
-----------------------------------------------------------------|-----------------------------------------------------------------|-----------------------------------------------------------------|-----------------------------------------------------------------|-1-----------1-----------1-----------1-----------1-----1-----1/5-|---1-0-0-0-0---1-0-0-0-0---1-0-0-0-0---1-0-0-0-0---1-0---1-0-----|
-----------------------------------------------------------------|-----------------------------------------------------------------|-----------------------------------------------------------------|-----------------------------------------------------------------|-1-----------1-----------1-----------1-----------1-----1-----1/5-|---1-0-0-0-0---1-0-0-0-0---1-0-0-0-0---1-0-0-0-0---1-0---1-0-----|
-----------------------------------------------------------------|-----------------------------------------------------------------|-----------------------------------------------------------------|-----------------------------------------------------------------|-1-----------1-----------1-----------1-----------1-----1-----1/5-|---1-0-0-0-0---1-0-0-0-0---1-0-0-0-0---1-0-0-0-0---1-0---1-0-----|
2:40
1-----------------------------------------------------------------|----------------------------10-----10-----10-----10-----11-----11|10-------------9---------------7-7----7-7----7-7----7-7----7-7---|-X-------------X-------------------------------------------------|-8-------------7-------------------------------------------------|-----------------------------------------------------------------|
2-----------------------------------------------------------------|-----------------------------------------------------------------|-----------------------------------------------------------------|-----------------------------------------------------------------|-----------------------------------------------------------------|-0---------------------------5--5--5--5--5--5--3--3--3--8--8--8--|
1-----------------------------------------------------------------------|----------------------------10-----10-----11------10-------13-------13-|10-------------9---------------7-7----7-7----12-------10------10-10----|-X-------------X-------------------------------------------------------|-8-------------7-------------------------------------------------------|-----------------------------------------------------------------------|
2---------------------------------------------------------------------------|---------------------------------------------------------------------------|---------------------------------------------------------------------------|---------------------------------------------------------------------------|----------1------------------1---------------------------------------------|0--00-0-0--0-0-000-0--00-0-0--0-0-000--5--5--5--5--5--5--3--3--3--8--8--8--|
3:01
------------------------------------------------------------|------------------------------------------------------------|------------------------------------------------------------|------------------------------------------------------------|-1-------------1-------------1-------------1----------------|---0-0---0-0-0---0-0---0-0-0---0-0---0-0-0---0-0---0-0-0----|
------------------------------------------------------------------|------------------------------------------------------------------|------------------------------------------------------------------|------------------------------------------------------------------|------------------------------------------------------------------|-5-5--5---5-5-5---5-5--5---5-5-5---3-3--3---3-3-3---8-8--8---8-8-8|
------------------------------------------------------------|------------------------------------------------------------|------------------------------------------------------------|------------------------------------------------------------|------------------------------------------------------------|-0-0--0---0--0-0---0-0-0-0-0--0-0--0---0--0-0---0-0-0-0-0---|
----------------------------------|----------------------------------|----------------------------------|----------------------------------|----------------------------------|-5--5--5--5--5--5--3--3--3--8\----|
3:20 #--------------------------------------------------|--------------------------------------------------|----------------------------------------------PH--|--8-------------------------------------------3---|----6-5---------------------------1---------------|--------0-0-0-0-0-0-0-0-0-0-0-0-0---1-0-1-0-0-----| * * * * * *
#--------------------------------------------------|--------------------------------------------------|----------------------------------------------PH--|--8-------------------------------------------3---|----6-5---------------------------1---------------|--------0-0-0-0-0-0-0-0-0-0-0-0-0---1-0-1-0-0-----| * * * * * *
#--------------------------------------------------|--------------------------------------------------|----------------------------------------------PH--|--8-------------------------------------------3---|----6-5---------------------------1---------------|--------0-0-0-0-0-0-0-0-0-0-0-0-0---1-0-1-0-0-----|
* * * * * * #--------------------------------------------------|--------------------------------------------------|----------------------------------------------PH--|--8-------------------------------------------3---|----6-5---------------------------1---------------|--------0-0-0-0-0-0-0-0-0-0-0-0-0---1-0-1-0-0-----| * * * * * *
Please rate this tab:
x1.0