And The Snakes Start To Sing tab with lyrics by Bring Me The Horizon - Easy chords and tabs for guitar

Bring Me The Horizon – And The Snakes Start To Sing tab

BRING ME THE HORIZON

AND THE SNAKES START TO SING

DROP C

TABBED BY andherembrace



0:15

---------------------------------------------------------------------|---------------------------------------------------------------------|-------7-------------10---------10-----------7-----5-7-10---7--8-10--|-----8-----------------12---------12-------8-------7/8-12---8/10-12--|---------------------------------------------------------------------|-5-----------5-5/8----------10---------5-----------------------------|
---------------------------------------------------------------------|---------------------------------------------------------------------|-------7-------------10---------10-----------7-----5-7-10---7--8-10--|-----8-----------------12---------12-------8-------7/8-12---8/10-12--|---------------------------------------------------------------------|-5-----------5-5/8----------10---------5-----------------------------|
0:38
---)(------)(----13-10----17-17\-----------)(------)(-----------------|-10------10----------------------10-10---10------10-------11----------|------12------12------------------------------12------12--------------|-------------------------------------------------------------13---12~~|----------------------------------------------------------------------|----------------------------------------------------------------------|
---)(------)(----13-10----17-17\-----------)(------)(-----------------|-10------10----------------------10-10---10------10-------11----------|------12------12------------------------------12------12--------------|-------------------------------------------------------------13---12~~|----------------------------------------------------------------------|----------------------------------------------------------------------|
1:02
-10-10-13-13--10---10----10----10-----10-10-13-13--10---10----10----10-|-----------------------------------------------------------------------|-----------------------------------------------------------------------|-----------------12----12----12-----------------------12----12----12---|-----------------------------------------------------------------------|-----------------------------------------------------------------------|
-10-10-13-13--10---10----10----10-----10-10-13-13--10---10----10----10-|-----------------------------------------------------------------------|-----------------------------------------------------------------------|-----------------12----12----12-----------------------12----12----12---|-----------------------------------------------------------------------|-----------------------------------------------------------------------|
-10-10-13-13--10---10----10----10-----10-10-13-13--10---10----10----10-|-----------------------------------------------------------------------|-----------------------------------------------------------------------|-----------------12----12----12-----------------------12----12----12---|-----------------------------------------------------------------------|-----------------------------------------------------------------------|
-10-10-13-13--10---10----10----10-----10-10-13-13--10---------|--------------------------------------------------------------|--------------------------------------------------------------|-----------------12----12----12-----------------------12------|---------------------------------------------------------10---|--------------------------------------------------------------|
1:25
1--------------------------------------------------------------|--------------------------------------------------------------|--------------------------------------------------------------|--------------------------------------------------------------|-5--5--5--5-5--5--5--5--5-5-5-8--8--8--8-8-1--1-1-10-10-10-10-|-5--5--5--5-5--5--5--5--5-5-5/8--8--8--8-8-1--1-1-10-10-10-10-|
---) (--------) (--------------------------------------------|-10----------10-------------------11---------------------------|--------12----------12---10------------14-14-------------------|-----------------------------12--------------------------------|----------------------------------------------12-12~~~---------|---------------------------------------------------------------|
1------------------------------------------------------------|------------------------------------------------------------|------------------------------------------------------------|------------------------------------------------------------|-5--5--5--5-5--5--5--5--5-5-5-8--8--8--8-8-1-1-1-1-1-1-1-1--|-5--5--5--5-5--5--5--5--5-5-5/8--8--8--8-8-1-1-1-1-1-1-1-1--|
---) (--------) (---------------------------------|-10----------10----------11-------------------------|--------12----------12------------------------------|-----------------------------13--------12~~~--------|----------------------------------------------------|----------------------------------------------------|
1:48
-10-10-13-13--10---10----10----10-----10-10-13-13--10---10----10----10-|-----------------------------------------------------------------------|-----------------------------------------------------------------------|-----------------12----12----12-----------------------12----12----12---|-----------------------------------------------------------------------|-----------------------------------------------------------------------|
-10-10-13-13--10---10----10----10-----10-10-13-13--10---10----10----10-|-----------------------------------------------------------------------|-----------------------------------------------------------------------|-----------------12----12----12-----------------------12----12----12---|-----------------------------------------------------------------------|-----------------------------------------------------------------------|
-10-10-13-13--10---10----10----10-----10-10-13-13--10---10----10----10-|-----------------------------------------------------------------------|-----------------------------------------------------------------------|-----------------12----12----12-----------------------12----12----12---|-----------------------------------------------------------------------|-----------------------------------------------------------------------|
-10-10-13-13--10---10----10----10-----10-10-13-13--10---10----10----10-|-----------------------------------------------------------------------|-----------------------------------------------------------------------|-----------------12----12----12-----------------------12----12----12---|-----------------------------------------------------------------------|-----------------------------------------------------------------------|
-10-10-13-13--10---10----10----10-----10-10-13-13--10---10----10----10-|-----------------------------------------------------------------------|-----------------------------------------------------------------------|-----------------12----12----12-----------------------12----12----12---|-----------------------------------------------------------------------|-----------------------------------------------------------------------|
-10-10-13-13--10---10----10----10-----10-10-13-13--10---10----10----10-|-----------------------------------------------------------------------|-----------------------------------------------------------------------|-----------------12----12----12-----------------------12----12----12---|-----------------------------------------------------------------------|-----------------------------------------------------------------------|
2:23
L---) (--------) (---------------------17-------------|-10----------10----------------------------------------|--------12----------12---10---------14------14-14~-----|-----------------------------12------------------------|-------------------------------------------------------|-------------------------------------------------------|
R-10-10-13-13--10---10----10----10-----10-10-13-13--10---10----10----10-|-----------------------------------------------------------------------|-----------------------------------------------------------------------|-----------------12----12----12-----------------------12----12----12---|-----------------------------------------------------------------------|-----------------------------------------------------------------------|
L---) (--------) (---------------------------------|-10----------10----------11-------------------------|--------12----------12------------------------------|-----------------------------13--------12~~~--------|----------------------------------------------------|----------------------------------------------------|
R-10-10-13-13--10---10----10----10-----10-10-13-13--10---10---|-------------------------------------------------------------|-------------------------------------------------------------|-----------------12----12----12-----------------------12-----|-------------------------------------------------------------|-------------------------------------------------------------|
2:34
1--------------------------------------------------------------|--------------------------------------------------------------|--------------------------------------------------------------|--------------------------------------------------------------|-5--5--5--5-5--5--5--5--5-5-5-8--8--8--8-8-1--1-1-10-10-10-10-|-5--5--5--5-5--5--5--5--5-5-5/8--8--8--8-8-1--1-1-10-10-10-10-|
---) (--------) (--------------------------------------------|-10----------10-------------------11---------------------------|--------12----------12---10------------14-14-------------------|-----------------------------12--------------------------------|----------------------------------------------12-12~~~---------|---------------------------------------------------------------|
1------------------------------------------------------------|------------------------------------------------------------|------------------------------------------------------------|------------------------------------------------------------|-5--5--5--5-5--5--5--5--5-5-5-8--8--8--8-8-1-1-1-1-1-1-1-1--|-5--5--5--5-5--5--5--5--5-5-5/8--8--8--8-8-1-1-1-1-1-1-1-1--|
---) (--------) (---------------------------------|-10----------10----------11-------------------------|--------12----------12------------------------------|-----------------------------13--------12~~~--------|----------------------------------------------------|----------------------------------------------------|
1--------------------------------------------------------------|--------------------------------------------------------------|--------------------------------------------------------------|--------------------------------------------------------------|-5--5--5--5-5--5--5--5--5-5-5-8--8--8--8-8-1--1-1-10-10-10-10-|-5--5--5--5-5--5--5--5--5-5-5/8--8--8--8-8-1--1-1-10-10-10-10-|
---) (--------) (--------------------------------------------|-10----------10-------------------11---------------------------|--------12----------12---10------------14-14-------------------|-----------------------------12--------------------------------|----------------------------------------------12-12~~~---------|---------------------------------------------------------------|
1------------------------------------------------------------|------------------------------------------------------------|------------------------------------------------------------|------------------------------------------------------------|-5--5--5--5-5--5--5--5--5-5-5-8--8--8--8-8-1-1-1-1-1-1-1-1--|-5--5--5--5-5--5--5--5--5-5-5/8--8--8--8-8-1-1-1-1-1-1-1-1--|
---) (--------) (---------------------------------|-10----------10----------11-------------------------|--------12----------12------------------------------|-----------------------------13--------12~~~--------|----------------------------------------------------|----------------------------------------------------|
2:58
SOLO----------------------------------------------------|--)()-------------)(--------------------_-----------|-7---------------7------^--------^-----/ \----------|-------8/10-7-------10-8-10-7---7-8-7-5-7-5---------|----------------------------------------------8-5---|----------------------------------------------------|
RYTHM-----------------------------------------------------|-6-----6----6----------------------------------------|-7-----7----7--7-7-710-10-10--1010--3-3-3-3-8-8-8-8--|-7-----7----7--7-7-710-10-10--1010--3-3-3-3-8-8-8-8--|-5-----5----5--5-5-5/8--8--8---8-8--1-1-1-1-6-6-6-6--|-5-----5----5--5-5-5/8--8--8---8-8--1-1-1-1-6-6-6-6--|
SOLO-----------------------------------------------------|-----------------------------------------------------|------------------------------------7-----7/10-------|------------------12---------------------------------|--5/10--------10-----10----5----6------6-------------|-----------------------------------------------------|
RYTHM-----------------------------------------------------|-6-----6----6----------------------------------------|-7-----7----7--7-7-710-10-10--1010--3-3-3-3-3-3-3-3--|-7-----7----7--7-7-710-10-10--1010--3-3-3-3-3-3-3-3--|-5-----5----5--5-5-5/8--8--8---8-8--1-1-1-1-1-1-1-1--|-5-----5----5--5-5-5/8--8--8---8-8--1-1-1-1-1-1-1-1--|
3:09
SOLO )() )( __-10-------------------10--------^---------^-------/ \--------|--------11/13-10-----------13-11-13-10--10-11-10-8-10-8-------|--------------------------------------------------------10-10-|--------------------------------------------------------------|--------------------------------------------------------------|--------------------------------------------------------------|
RYTHM-----------------------------------------------------|-6-----6----6----------------------------------------|-7-----7----7--7-7-710-10-10--1010--3-3-3-3-8-8-8-8--|-7-----7----7--7-7-710-10-10--1010--3-3-3-3-8-8-8-8--|-5-----5----5--5-5-5/8--8--8---8-8--1-1-1-1-6-6-6-6--|-5-----5----5--5-5-5/8--8--8---8-8--1-1-1-1-6-6-6-6--|
SOLO--------------------------------------------------------|-----------------15-----------------------13------------|-10/12------/12------12--------------------------14~~~~-|---------------------------------------12----12---------|--------------------------------------------------------|--------------------------------------------------------|
RYTHM-----------------------------------------------------|-6-----6----6----------------------------------------|-7-----7----7--7-7-710-10-10--1010--3-3-3-3-3-3-3-3--|-7-----7----7--7-7-710-10-10--1010--3-3-3-3-3-3-3-3--|-5-----5----5--5-5-5/8--8--8---8-8--1-1-1-1-1-1-1-1--|-5-----5----5--5-5-5/8--8--8---8-8--1-1-1-1-1-1-1-1--|
3:22
1---------------------------------------------------------------|---------------------------------------------------------------|---------)(---------)(------------)(---------------------------|-------12---------12------------12-----------------------------|-10-10--------10----------13-13-------10/13-13-13-13\10-10-10--|---------------------------------------------------------------|
2---------------------------------------------------------------|---------------------------------------------------------------|---------------------------------------------------------------|---------------------------------------------------------------|---------------------------------------------------------------|---------------------------------------------------------------|
1---------------------------------------------------------------|---------------------------------------------------------------|---------)(---------)(------------)(---------------------------|-------12---------12------------12-----------------------------|-10-10--------10----------13-13-------10/13-13-13-13/16-16-16--|---------------------------------------------------------------|
2---------------------------------------------------------------|-11------------------------------------------------------------|---------------------------------------------------------------|---------------------------------------------------------------|---------------------------------------------------------------|---------------------------------------------------------------|
1---------------------------------------------------------------|---------------------------------------------------------------|---------)(---------)(------------)(---------------------------|-------12---------12------------12-----------------------------|-10-10--------10----------13-13-------10/13-13-13-13\10-10-10--|---------------------------------------------------------------|
2---------------------------------------------------------------|-11-----------------------10-----------------------------------|---------------------------------------------------------------|---------------------------------------------------------------|---------------------------------------------------------------|---------------------------------------------------------------|
1---------------------------------------------------------------|---------------------------------------------------------------|---------)(---------)(------------)(---------------------------|-------12---------12------------12-----------------------------|-10-10--------10----------13-13-------10/13-13-13-13/16-16-16--|---------------------------------------------------------------|
2---------------------------------------------------------------|-11-----------------------10-----------------------------------|---------------------------------------------------------------|---------------------------------------------------------------|---------------------------------------------------------------|---------------------------------------------------------------|
1---------------------------------------------------------------|---------------------------------------------------------------|---------)(---------)(------------)(---------------------------|-------12---------12------------12-----------------------------|-10-10--------10----------13-13-------10/13-13-13-13\10-10-10--|---------------------------------------------------------------|
2---------------------------------------------------------------|-11-----------------------10-----------------------------------|---------------------------------------------------------------|---------------------------------------------------------------|---------------------------------------------------------------|---------------------------------------------------------------|
1---------------------------------------------------------------|---------------------------------------------------------------|---------)(---------)(------------)(---------------------------|-------12---------12------------12-----------------------------|-10-10--------10----------13-13-------10/13-13-13-13/16-16-16--|---------------------------------------------------------------|
2---------------------------------------------------------------|-11-----------------------10-----------------------------------|---------------------------------------------------------------|---------------------------------------------------------------|---------------------------------------------------------------|---------------------------------------------------------------|
1---------------------------------------------------------------|---------------------------------------------------------------|---------)(---------)(------------)(---------------------------|-------12---------12------------12-----------------------------|-10-10--------10----------13-13-------10/13-13-13-13\10-10-10--|---------------------------------------------------------------|
2---------------------------------------------------------------|-11-----------------------10-----------------------------------|---------------------------------------------------------------|---------------------------------------------------------------|---------------------------------------------------------------|---------------------------------------------------------------|
1---------------------------------------------------------------|---------------------------------------------------------------|---------)(---------)(------------)(---------------------------|-------12---------12------------12-----------------------------|-10-10--------10----------13-13-------10/13-13-13-13/16-16-16--|---------------------------------------------------------------|
2---------------------------------------------------------------|-11-----------------------10-----------------------------------|---------------------------------------------------------------|---------------------------------------------------------------|---------------------------------------------------------------|---------------------------------------------------------------|
1---------------------------------------------------------------|---------------------------------------------------------------|---------------------------------------------------------------|---------------------------------------------------------------|---------------------------------------------------------------|---------------------------------------------------------------|
2---------------------------------------------------------------|-11-----------------------10-----------------------------------|---------------------------------------------------------------|---------------------------------------------------------------|---------------------------------------------------------------|---------------------------------------------------------------|
4:08
--------------------------------------------------------------|--------------------------------------------------------------|--------------------------------------------------------------|--------------------------------------------------------------|-5--5--5--5-5--5--5--5--5-5-5-8--8--8--8-8-1--1-1-10-10-10-10-|-5--5--5--5-5--5--5--5--5-5-5/8--8--8--8-8-1--1-1-10-10-10-10-|
------------------------------------------------------------|------------------------------------------------------------|------------------------------------------------------------|------------------------------------------------------------|-5--5--5--5-5--5--5--5--5-5-5-8--8--8--8-8-1-1-1-1-1-1-1-1--|-5--5--5--5-5--5--5--5--5-5-5/8--8--8--8-8-1-1-1-1-1-1-1-1--|
--------------------------------------------------------------|--------------------------------------------------------------|--------------------------------------------------------------|--------------------------------------------------------------|-5--5--5--5-5--5--5--5--5-5-5-8--8--8--8-8-1--1-1-10-10-10-10-|-5--5--5--5-5--5--5--5--5-5-5/8--8--8--8-8-1--1-1-10-10-10-10-|
------------------------------------------------------------|------------------------------------------------------------|------------------------------------------------------------|------------------------------------------------------------|-5--5--5--5-5--5--5--5--5-5-5-8--8--8--8-8-1-1-1-1-1-1-1-1--|-5--5--5--5-5--5--5--5--5-5-5/8--8--8--8-8-1-1-1-1-1-1-1-1--|
1---) (--------) (-----------)-----------------------------|-10----------10---------10--10------------------------------|--------12----------12--------------------------------------|------------------------------------------------------------|------------------------------------------------------------|------------------------------------------------------------|
2--------------------------------------------------------------|--------------------------------------------------------------|--------------------------------------------------------------|--------------------------------------------------------------|-5--5--5--5-5--5--5--5--5-5-5-8--8--8--8-8-1--1-1-10-10-10-10-|-5--5--5--5-5--5--5--5--5-5-5/8--8--8--8-8-1--1-1-10-10-10-10-|
1---) (--------) (-----------)-----------------------------|-10----------10---------10--10------------------------------|--------12----------12--------------------------------------|------------------------------------------------------------|------------------------------------------------------------|------------------------------------------------------------|
2------------------------------------------------------------|------------------------------------------------------------|------------------------------------------------------------|------------------------------------------------------------|-5--5--5--5-5--5--5--5--5-5-5-8--8--8--8-8-1-1-1-1-1-1-1-1--|-5--5--5--5-5--5--5--5--5-5-5/8--8--8--8-8-1-1-1-1-1-1-1-1--|
1---) (--------) (-----------)-----------------------------|-10----------10---------10--10------------------------------|--------12----------12--------------------------------------|------------------------------------------------------------|------------------------------------------------------------|------------------------------------------------------------|
2--------------------------------------------------------------|--------------------------------------------------------------|--------------------------------------------------------------|--------------------------------------------------------------|-5--5--5--5-5--5--5--5--5-5-5-8--8--8--8-8-1--1-1-10-10-10-10-|-5--5--5--5-5--5--5--5--5-5-5/8--8--8--8-8-1--1-1-10-10-10-10-|
1---) (--------) (-----------)-----------------------------|-10----------10---------10--10------------------------------|--------12----------12--------------------------------------|------------------------------------------------------------|------------------------------------------------------------|------------------------------------------------------------|
2------------------------------------------------------------|------------------------------------------------------------|------------------------------------------------------------|------------------------------------------------------------|-5--5--5--5-5--5--5--5--5-5-5-8--8--8--8-8-1-1-1-1-1-4------|-5--5--5--5-5--5--5--5--5-5-5/8--8--8--8-8-1-1-1-1-1-4------|
|
Please rate this tab:
x1.0