Remember Me tab with lyrics by British Sea Power - Easy chords and tabs for guitar

British Sea Power – Remember Me tab

This is the LEAD parts to the 2001 release, NOT THE 2003!
For the rhythm, please check the other tabs for the song, and remember,
they changed the lead slightly for the 2003 version.

British Sea Power - Remember Me
Standard tuning

Bass intro

Guitar 2 (Em)|-12-----------12-----------12-------||--12-------------12-----------12----||---12---------------12-----------12-||----14------------------------------||------------------------------------||------------------------------------|
Guitar 1|-----------------------||-----------------------||---------------------4-||-x--x-x-x-x-5----x-x-5-||-x--x-x-x-x-5----x-x-5-||-x--x-x-x-x-3----x-x---|
Guitar 2|----------------------------------------||----------------------------------------||----------------------------------------||-5--5-5-5-4-2--2-2-2-2------------------||-----------------------5-2--2-2-2-2-----||------------------------------------5-3-| x2
I'm no good at work out the rhythm so I'll try work out a couple of the lead parts
|----------------------||----------7^-7^-------||-8^-8^-4--------4-4-4-||----------------------||----------------------||----------------------| x2
|-------------------------------------------------||---------7^-7^-7-7-7---------------3-3-3-3-5-3---||-8^-8^-4-------------2/4-4-4-4-2-4-------------4-||-------------------------------------------------||-------------------------------------------------||-------------------------------------------------| x1
|----------------------||----------7^-7^-------||-8^-8^-4--------4-4-4-||----------------------||----------------------||----------------------| x2
|-/12-12-12--7-7-7-7--14-14-14-14--7-7-7-7------------------||-/12-12-12--8-8-8-8--15-15-15-15--8-8-8-8-7^---------------||---------------------------------------------9-9-7-9-7---4-||-----------------------------------------------------------||-----------------------------------------------------------||-----------------------------------------------------------| x1
Verse....|----------||----------||-4-7--7p4-||----------||----------||----------|
|------------------------x-x-x-x-x-x---||------------------------x-x-x-x-x-x---||-2-2-2-2/4-4-4-4-2-4----x-x-x-x-x-2/4-||------------------------x-x-x-x-x-x---||------------------------x-x-x-x-x-x---||------------------------x-x-x-x-x-x---|
|--------------------------------------------------------------------------------------||-15-15--15-15----15h17--17p15-15p12---15-15--15-17p15p12-12---------------------------||-14-14--14-14-----------------------------------------------14-12/-\12-12-12-14-14-14-||--------------------------------------------------------------------------------------||--------------------------------------------------------------------------------------||--------------------------------------------------------------------------------------|
|----------------------------------------------------------------------------------------||-12-12-12-12-12-12-10-10-10-12-12-12-12-15-15-15-15-12-12-12-10-------------------------||----------------------------------------------------------------12-12-12-11-11-11-11-12-||----------------------------------------------------------------------------------------||----------------------------------------------------------------------------------------||----------------------------------------------------------------------------------------|
play that last 'G' note a few more times
|----------------------------------------||----------------------------------------||----------------------------------------||-5--5-5-5-4-2--2-2-2-2------------------||-----------------------5-2--2-2-2-2-----||------------------------------------5-3-| x2
A chord
|----15----------------------------15-||-12----12-15-------------12-15-15----||-------------12-14-------------------||-------------------------------------||-------------------------------------||-------------------------------------|
Solo|---------9/----------------------------------------------------7-7-7-10-7-10-||----------------------8--8-8-8-8-------------------8-10-8-10-8---------------||-------------------9-------------9-7-9--9-7/4-2-4----------------------------||-9-9-9-9-----7-7-9-----------------------------------------------------------||-----------------------------------------------------------------------------||-----------------------------------------------------------------------------|
-15-15-15-15p12--------|----------------15-15^-|-----------------------|-----------------------|-----------------------|-----------------------|
Verse (from after "whatever")|-----------------------------------------------------------------------------------||-----------------------------------------------------------------------------------||-2-2-2-2/4-4-4-4-4-4-4-4-4/7-7-7-7/9-9-9-9-9^--12-12-11-11-9-9-7-7-7-9p7-4-2-4-2-4-||-----------------------------------------------------------------------------------||-----------------------------------------------------------------------------------||-----------------------------------------------------------------------------------|
|----------------------------------------------------------------------------------------||-12-12-12-12-12-12-10-10-10-12-12-12-12-15-15-15-15-12-12-12-10-------------------------||----------------------------------------------------------------12-12-12-11-11-11-11-12-||----------------------------------------------------------------------------------------||----------------------------------------------------------------------------------------||----------------------------------------------------------------------------------------|
play that last 'G' note a few more times
|----------------------------------------||----------------------------------------||----------------------------------------||-5--5-5-5-4-2--2-2-2-2------------------||-----------------------5-2--2-2-2-2-----||------------------------------------5-3-| x2
|-----------------------------------------------------------------------------------------||--------------------------------------------------------------------------15^-^15-^15p12-||-------------------------------------------------------------15^--15^-15^----------------||-5-5-5-5-7-7-7-7-9-9-9-9-12-12-12-12-14-14-14-14-16-16-16-16-----------------------------||-x-x-x-x-x-x-x-x-x-x-x-x-x--x--x--x--x--x--x--x--x--x--x--x------------------------------||-3-3-3-3-5-5-5-5-7-7-7-7-10-10-10-10-12-12-12-12-14-14-14-14-----------------------------|
--------------------------------------------|--------------------------------------------|-14^---14p12--12-14-12--14^-14^-14p12-14-12-|--------------------------------------------|--------------------------------------------|--------------------------------------------|
Guitar 2|----------------------------------------||----------------------------------------||----------------------------------------||-5--5-5-5-4-2--2-2-2-2------------------||-----------------------5-2--2-2-2-2-----||------------------------------------5-3-| x2
Guitar 3 (this is played quite quietly towards the end of the guitar two riff)|-------------------------||----20-------------------||----------19-------------||-17-------------19----17-||-------17----------------||-------------17----15----|
any questions? andrewbiles@hotmail.com ____________________ Lyrics: Do you worry about your health Do you watch it slowly change And when you listen to yourself, does it feel like somebody else And did you notice when you began to disappear Was it slowly at first Until there was nobody really there Increment by increment Increment by increment Increment by increment Oh remember me Yeah remember me Oh remember me Yeah remember me Oh remember me Will you remember me? Did half of you pass away What about the other half Yeah what about the other half Whatever! We're all part of the same old bloody regime With someone taking it out whilst you were putting it in Increment by increment Increment by increment Increment by increment Oh remember me Yeah remember me Oh remember me Yeah remember me Oh remember me Will you remember me? Oh remember me Yeah remember me Oh remember me From the here and now to eternity Will you remember me?
Please rate this tab:
x1.0