Buckethead - I Love My Parents tab

-------------------------------------------------------------------------------
			     I LOVE MY PARENTS - Buckethead
-------------------------------------------------------------------------------
Tabbed by: Tyler J
Email: full_metalOrange AT hotmail DOT com

Tuning: Standard

(This is the Giant Robot version not the BucketheadLand version)

I must say I'm sorry about the way this looks and the spacing of the bars.
I used guitar pro to tab it but posted it text wise so others can view it easy.



E|--------------------------|------------------------|B|--13----------------12----|------------------------|G|--------12----------------|--12----------12--------|D|--------------14----------|--------14----14--------|A|--15----------------------|--------------15--------|E|--------------------------|------------------------|
---------------------------|--------------------------|-------------------|--13-----------------12----|--------------12s----8----|--8----------------|--------12-----------------|--12----------------------|-------------------|--------------14s----12----|--------12----------------|-------------------|---0-----------------------|--------------------------|--0----------------|---------------------------|--------------------------|-------------------|
-------------------------|-----------------------|-----------------------------|--12s----8---------------|-----------------------|--10----10-------10--10------|-------------------------|-----------------------|-----------------------------|-------------------------|-----------------------|-----------------------------|-------------------------|-----------------------|---8--------8---------8------|---0--------0-------0----|-----0-------0----0----|-----------------------------|
--------------------------|------------------------------|--10----------------------|--12s--13s--12s--8------------|--------------------------|------------------------------|--------------------------|------------------------------|-------8--------8----8----|------------------------------|--------------------------|---0-------------0-------0----|
-----------------------|--------------------------|-----------------------|--10p--8----8----------8--|-----------------------|-----------------10-------|-----------------------|--------------------------|-----------------------|---8----------------------|-----0-------0----0----|--------------------------|
-------------------------|----------<>12------------|--20----19----15---------|--13----12---------------|--<>12--------------------|-------------------------|-------------------------|--------------------------|--17----16----12---------|--10-----9----12----0----|--------------------------|-------------------------|-------------------------|--------------------------|--------------------0----|-------------------------|--------------------------|-------------------------|
------------------------|--20----19----15----13----|----------13------------|--------------------13----|------16----------------|--17----16----12----14----|--14--------------------|--------------------15----|------------------------|--------------------------|------------------------|--------------------------|
--15--13--12--13----------13--|-----15--13--13--12--13--12--10--|--------------------------13--|---------------------------------|--------------------------14--|---------------------------------|--------------------------15--|---------------------------------|------------------------------|---------------------------------|------------------------------|---------------------------------|
--12-------------------|-------------8--------|-----------------------|----------------------|-----------------------|--------9-------------|-----------------------|--12------------------|-----------------10----|----------------------|------------8----------|----------------------|
--------------------------|------------------------|--13----------------12----|------------------------|--------12----------------|--12----------12--------|--------------14----------|--------14----14--------|--15----------------------|--------------15--------|--------------------------|------------------------|
---------------------------|--------------------------|-------------------|--13-----------------12----|--------------12s----8----|--8----------------|--------12-----------------|--12----------------------|-------------------|--------------14s----12----|--------12----------------|-------------------|---0-----------------------|--------------------------|--0----------------|---------------------------|--------------------------|-------------------|
-------------------------|-----------------------|-----------------------------|--12s----8---------------|-----------------------|--10----10-------10--10------|-------------------------|-----------------------|-----------------------------|-------------------------|-----------------------|-----------------------------|-------------------------|-----------------------|---8--------8---------8------|---0--------0-------0----|-----0-------0----0----|-----------------------------|
--------------------------|------------------------------|--10----------------------|--12s--13s--12s--8------------|--------------------------|------------------------------|--------------------------|------------------------------|-------8--------8----8----|------------------------------|--------------------------|---0-------------0-------0----|
-----------------------|--------------------------|-----------------------|--10p--8----8----------8--|-----------------------|-----------------10-------|-----------------------|--------------------------|-----------------------|---8----------------------|-----0-------0----0----|--------------------------|
-------------------------|--------------------10----|--12------------------|-------------------------|--------------------------|--------13------------|-------------------------|--------------12----------|----------------------|-------------------10----|--------14----------------|----------------------|-------------------------|--10----------------------|----------------------|--8----10----12----------|--------------------------|----------------------|
--------------------------|------------------------|---------------------------|--13----------------12----|------------------------|--13-----------------12----|--------12----------------|--12----------12--------|--------12-----------------|--------------14----------|--------14----14--------|--------------14s----12----|--15----------------------|--------------15--------|---0-----------------------|--------------------------|------------------------|---------------------------|
--------------------------|-------------------|-------------------------|--------------12s----8----|-------------------|--12s----8---------------|--12----------------------|-------------------|-------------------------|--------12----------------|-------------------|-------------------------|--------------------------|--0----------------|-------------------------|--------------------------|-------------------|---0--------0-------0----|
-----------------------|-----------------------------|-----------------------|--10----10-------10--10------|-----------------------|-----------------------------|-----------------------|-----------------------------|-----------------------|---8--------8---------8------|-----0-------0----0----|-----------------------------|
--------------------------|------------------------------|--10----------------------|--12s--13s--12s--8------------|--------------------------|------------------------------|--------------------------|------------------------------|-------8--------8----8----|------------------------------|--------------------------|---0-------------0-------0----|
-----------------------|--------------------------|-----------------------|--10p--8----8----------8--|-----------------------|-----------------10-------|-----------------------|--------------------------|-----------------------|---8----------------------|-----0-------0----0----|--------------------------|
-------------------------|----------<>12------------|--20----19----15---------|--13----12---------------|--<>12--------------------|-------------------------|-------------------------|--------------------------|--17----16----12---------|--10-----9----12----0----|--------------------------|-------------------------|-------------------------|--------------------------|--------------------0----|-------------------------|--------------------------|-------------------------|
------------------------|--20----19----15----13----|----------13------------|--------------------13----|------16----------------|--17----16----12----14----|--14--------------------|--------------------15----|------------------------|--------------------------|------------------------|--------------------------|
--15--13--12--13----------13--|-----15--13--13--12--13--12--10--|--------------------------13--|---------------------------------|--------------------------14--|---------------------------------|--------------------------15--|---------------------------------|------------------------------|---------------------------------|------------------------------|---------------------------------|
--12-------------------|-------------8--------|-----------------------|----------------------|-----------------------|--------9-------------|-----------------------|--12------------------|-----------------10----|----------------------|------------8----------|----------------------|
--------------------------|------------------------|--13----------------12----|------------------------|--------12----------------|--12----------12--------|--------------14----------|--------14----14--------|--15----------------------|--------------15--------|--------------------------|------------------------|
---------------------------|--------------------------|-------------------|--13-----------------12----|--------------12s----8----|--8----------------|--------12-----------------|--12----------------------|-------------------|--------------14s----12----|--------12----------------|-------------------|---0-----------------------|--------------------------|--0----------------|---------------------------|--------------------------|-------------------|
-------------------------|-----------------------|-----------------------------|--12s----8---------------|-----------------------|--10----10-------10--10------|-------------------------|-----------------------|-----------------------------|-------------------------|-----------------------|-----------------------------|-------------------------|-----------------------|---8--------8---------8------|---0--------0-------0----|-----0-------0----0----|-----------------------------|
--------------------------|------------------------------|--10----------------------|--12s--13s--12s--8------------|--------------------------|------------------------------|--------------------------|------------------------------|-------8--------8----8----|------------------------------|--------------------------|---0-------------0-------0----|
-----------------------|--------------------------|-----------------------|--10p--8----8----------8--|-----------------------|-----------------10-------|-----------------------|--------------------------|-----------------------|---8----------------------|-----0-------0----0----|--------------------------|
-------------------------|--------------------10----|--12------------------|-------------------------|--------------------------|--------13------------|-------------------------|--------------12----------|----------------------|-------------------10----|--------14----------------|----------------------|-------------------------|--10----------------------|----------------------|--8----10----12----------|--------------------------|----------------------|
Tap to rate this tab
 
# A B C D E F G H I J K L M N O P Q R S T U V W X Y Z