Hit The Floor tab with lyrics by Bullet For My Valentine - Easy chords and tabs for guitar

Bullet For My Valentine – Hit The Floor tab

 _______________________
|                       | SONG:      HIT THE FLOOR
|BULLET FOR MY VALENTINE| ALBUM:     THE POISON
|_______________________| TABBED BY: ibnzplayer0 (label_Sk8er1@yahoo.com)
 ______________________
| . = PALM MUTE        |
| ~ = LET NOTE RING    |
| / = SLIDE UP         |
| V = NATURAL HARMONIC |
| + = TIED NOTE        |
| b = BEND NOTE        |
|<> = HARMONIC         |
|p/h= pulloff/hammeron |
|______________________|
TUNING : C G C F A D
3 GUITARS (MOSTLY TWO THROUGHOUT THE WHOLE SONG)
Q = 178
__________________________________________________________________________

[INTRO PT.1]GUITAR 1|-----------------------|----------------||-----------------------|----------------||-----------------------|----------------||-------4-------4-------|-4-----4-----4--||-----------------------|----------------||-2---2---2---2---2---2-|---2-2---2-2----|| . . . . . . . . . .
|
GUITAR 2|-----------------------|----------------||-----------------------|----------------||-----------------------|----------------||-----------------------|----------------||-2-2-2---2-2-2---2-2-2-|----------------||-2-2-2---2-2-2---2-2-2-|----------------| S S E beats here
|-----------------------|-------------------||-----------------------|-------------------||-----------------------|-------------------||-------5-------5-------|-5-----5-----5S7---||-----------------------|-------------------||-2---2---2---2---2---2-|---2-2---2-2-------|| . . . . . . . . . .
|
|-----------------------|-------------------||-----------------------|-------------------||-----------------------|-------------------||-----------------------|-------------------||-2-2-2---2-2-2---2-2-2-|-------------------||-2-2-2---2-2-2---2-2-2-|-------------------|
|-----------------------|----------------||-----------------------|----------------||-----------------------|----------------||-------4-------4-------|-4-----4-----4--||-----------------------|----------------||-2---2---2---2---2---2-|---2-2---2-2----|| . . . . . . . . . .
|
|-----------------------|----------------||-----------------------|----------------||-----------------------|----------------||-----------------------|----------------||-2-2-2---2-2-2---2-2-2-|----------------||-2-2-2---2-2-2---2-2-2-|----------------|
|-----------------------|-----------------||-----------------------|-----------------||-----------------------|-----------------||-------5-------5-----5-|--2-5-2-5-2++(2)-||-----------------------|--2-5-2-5-2++(2)-||-2---2---2---2---2-----|--2-5-2-5-2++(2)-|| . . . . .
|
|-----------------------|-----------------||-----------------------|-----------------||-----------------------|-----------------||-----------------------|--2-5-2-5-2++(2)-||-2-2-2---2-2-2---2-2-2-|--2-5-2-5-2++(2)-||-2-2-2---2-2-2---2-2-2-|--2-5-2-5-2++(2)-|
[INTRO PT.2]|---------------------|----------------------------------------||---------------------|----------------------------------------||---------------------|----------------------------------------||-2-2-2--2-2-2--2-2-2+|+(2)------------------------------------||-2-2-2--2-2-2--2-2-2+|+(2)------------------------------------||-2-2-2--2-2-2--2-2-2+|+(2)---0----0----0----0----0----0----0--|
| |
|---------------------|----------------------------------------||---------------------|----------------------------------------||---------------------|----------------------------------------||-2-2-2--2-2-2--2-2-2+|+(2)-<12>-<12>-<12>-<12>-<12>-<12>-<12>-||-2-2-2--2-2-2--2-2-2+|+(2)------------------------------------||-2-2-2--2-2-2--2-2-2+|+(2)------------------------------------|
|---------------------|----------------------------------------||---------------------|----------------------------------------||---------------------|----------------------------------------||-2-2-2--2-2-2--2-2-2+|+(2)------------------------------------||-2-2-2--2-2-2--2-2-2+|+(2)------------------------------------||-2-2-2--2-2-2--2-2-2+|+(2)---0----0----0----0----0----0----0--|
|
|---------------------|----------------------------------------||---------------------|----------------------------------------||---------------------|----------------------------------------||-2-2-2--2-2-2--2-2-2+|+(2)-<12>-<12>-<12>-<12>-<12>-<12>-<12>-||-2-2-2--2-2-2--2-2-2+|+(2)------------------------------------||-2-2-2--2-2-2--2-2-2+|+(2)------------------------------------|
|---------------------|----------------------------------------||---------------------|----------------------------------------||---------------------|----------------------------------------||-2-2-2--2-2-2--2-2-2+|+(2)------------------------------------||-2-2-2--2-2-2--2-2-2+|+(2)------------------------------------||-2-2-2--2-2-2--2-2-2+|+(2)---0----0----0----0----0----0----0--|
|
|---------------------|----------------------------------------||---------------------|----------------------------------------||---------------------|----------------------------------------||-2-2-2--2-2-2--2-2-2+|+(2)-<12>-<12>-<12>-<12>-<12>-<12>-<12>-||-2-2-2--2-2-2--2-2-2+|+(2)------------------------------------||-2-2-2--2-2-2--2-2-2+|+(2)------------------------------------|
|---------------------|-----------------||---------------------|-----------------||---------------------|-----------------||-2-2-2--2-2-2--2-2-2-|--2-5-2-5-2++(2)-||-2-2-2--2-2-2--2-2-2-|--2-5-2-5-2++(2)-||-2-2-2--2-2-2--2-2-2-|--2-5-2-5-2++(2)-|
|
|---------------------|-----------------||---------------------|-----------------||---------------------|-----------------||-2-2-2--2-2-2--2-2-2-|--2-5-2-5-2++(2)-||-2-2-2--2-2-2--2-2-2-|--2-5-2-5-2++(2)-||-2-2-2--2-2-2--2-2-2-|--2-5-2-5-2++(2)-|
[INTRO PT.3] GUITAR 1 |------------------------|--------------------||--/8---(8)-/12--10---\7+|++(7)---------------||------------------------|--------------------||------------------------|--------------------||------------------------|--------------------||------------------------|--------------------|
|
GUITAR 2 |-/15--(15)-/19--17--\14+|+(14)---------------||------------------------|--------------------||------------------------|--------------------||------------------------|--------------------||------------------------|--------------------||------------------------|--------------------|
|
GUITAR 3 |------------------------|--------------------||------------------------|--------------------||------------------------|--------------------||---2+++(2)-----------10+|+(10)-5--12--7++(7)-||---2+++(2)---2---2---10+|+(10)-5--12--7++(7)-||---2+++(2)---2---2---10+|+(10)-5--12--7++(7)-| . .
|---------------------------|---------------------------||-13-12-10--8--10---8--7--8-|++(8)--7--5--7---8--7------||---------------------------|---------------------------||---------------------------|---------------------------||---------------------------|---------------------------||---------------------------|---------------------------|
| |
|-20-19-17-15--17--15-14-15-|+(15)-14-12-14--15-14------||---------------------------|---------------------------||---------------------------|---------------------------||---------------------------|---------------------------||---------------------------|---------------------------||---------------------------|---------------------------|
| |
|---------------------------|---------------------------||---------------------------|---------------------------||---------------------------|---------------------------||--2+++++++(2)-----------10+|+(10)--5----12---7++++(7)--||--2+++++++(2)--2---2----10+|+(10)--5----12---7++++(7)--||--2+++++++(2)--2---2----10+|+(10)--5----12---7++++(7)--| . .
|------------------------|--------------------||--/8+++(8)-/12--10--/13+|+(13)---------------||------------------------|--------------------||------------------------|--------------------||------------------------|--------------------||------------------------|--------------------|
| |
|-/15++(15)-/19--17--/20+|+(20)---------------||------------------------|--------------------||------------------------|--------------------||------------------------|--------------------||------------------------|--------------------||------------------------|--------------------|
| |
|------------------------|--------------------||------------------------|--------------------||------------------------|--------------------||---2+++(2)-----------10+|+(10)-5--12--7++(7)-||---2+++(2)---2---2---10+|+(10)-5--12--7++(7)-||---2+++(2)---2---2---10+|+(10)-5--12--7++(7)-| . .
|---------------------------|---------------------------||-13-12-10--8--10---8--7--8+|++(8)--7--5--7---8--7------||---------------------------|---------------------------||---------------------------|---------------------------||---------------------------|---------------------------||---------------------------|---------------------------|
|
|-20-19-17-15--17--15-14-15+|+(15)-14-12-14--15-14------||---------------------------|---------------------------||---------------------------|---------------------------||---------------------------|---------------------------||---------------------------|---------------------------||---------------------------|---------------------------|
|
| PM-||---------------------------|---------------------------||---------------------------|---------------------------||---------------------------|---------------------------||--2+++++++(2)-----------10+|+(10)--5----12---7++++(7)--||--2+++++++(2)--2---2----10+|+(10)--5----12---7++++(7)--||--2+++++++(2)--2---2----10+|+(10)--5----12---7++++(7)--|
[VERSE]|-------------------------|-------------------------||-------------------------|-------------------------||-12----------------12----|-------------12----12----||-------------------------|-------------------------||----10-10-10-10-10----10-|-10-10-10-10----10----10-||-------------------------|-------------------------|| . . . . . . . . . . . .
|
|-------------------------|-------------------------||-12----------------12----|-------------12----12----||-------------------------|-------------------------||----14-14-14-14-14----14-|-14-14-14-14----14----14-||-------------------------|-------------------------||-------------------------|-------------------------| . . . . . . . . . . . .
|-------------------------|-------------------------||-------------------------|-------------------------||-11----------------11----|-------------11----11----||-------------------------|-------------------------||-----9--9--9--9--9-----9-|--9--9--9--9-----9-----9-||-------------------------|-------------------------|| . . . . . . . . . . . .
|
|-------------------------|-------------------------||-10----------------10----|-------------10----10----||-------------------------|-------------------------||----12-12-12-12-12----12-|-12-12-12-12----12----12-||-------------------------|-------------------------||-------------------------|-------------------------| . . . . . . . . . . . .
|-------------------------|-------------------------||-------------------------|-------------------------||-12----------------12----|-------------12----12----||-------------------------|-------------------------||----10-10-10-10-10----10-|-10-10-10-10----10----10-||-------------------------|-------------------------|| . . . . . . . . . . . .
|
|-------------------------|-------------------------||-12----------------12----|-------------12----12----||-------------------------|-------------------------||----14-14-14-14-14----14-|-14-14-14-14----14----14-||-------------------------|-------------------------||-------------------------|-------------------------| . . . . . . . . . . . .
|-------------------------|-----------------------||-------------------------|-----------------------||-11----------------11----|-------------11h12p11--||-------------------------|-----------------------||-----9--9--9--9--9-----9-|--9--9--9--9-----------||-------------------------|-----------------------|| . . . . . . . . . .
|
|-------------------------|-----------------------||-10----------------10----|-------------10h12p10--||-------------------------|-----------------------||----12-12-12-12-12----12-|-12-12-12-12-----------||-------------------------|-----------------------||-------------------------|-----------------------| . . . . . . . . . .
|-------------------------|-------------------------||-------------------------|-------------------------||-12----------------12----|-------------12----12----||-------------------------|-------------------------||----10-10-10-10-10----10-|-10-10-10-10----10----10-||-------------------------|-------------------------|| . . . . . . . . . . . .
|
|-------------------------|-------------------------||-12----------------12----|-------------12----12----||-------------------------|-------------------------||----14-14-14-14-14----14-|-14-14-14-14----14----14-||-------------------------|-------------------------||-------------------------|-------------------------| . . . . . . . . . . . .
|-------------------------|-------------------------||-------------------------|-------------------------||-11----------------11----|-------------11----11----||-------------------------|-------------------------||-----9--9--9--9--9-----9-|--9--9--9--9-----9-----9-||-------------------------|-------------------------|| . . . . . . . . . . . .
|
|-------------------------|-------------------------||-10----------------10----|-------------10----10----||-------------------------|-------------------------||----12-12-12-12-12----12-|-12-12-12-12----12----12-||-------------------------|-------------------------||-------------------------|-------------------------| . . . . . . . . . . . .
|-------------------------|-------------------------||-------------------------|-------------------------||-12----------------12----|-------------12----12----||-------------------------|-------------------------||----10-10-10-10-10----10-|-10-10-10-10----10----10-||-------------------------|-------------------------|| . . . . . . . . . . . .
|
|-------------------------|-------------------------||-12----------------12----|-------------12----12----||-------------------------|-------------------------||----14-14-14-14-14----14-|-14-14-14-14----14----14-||-------------------------|-------------------------||-------------------------|-------------------------| . . . . . . . . . . . .
|-------------------------|-------------------------||-------------------------|-------------------------||-11----------------11----|-------------11----11----||-------------------------|-------------------------||-------------------------|-------------------------||----12-12-12-12-12----12-|-12-12-12-12----12----12-|
|
| . . . . . .|-------------------------|-------------------------||-------------------------|-------------------------||-------------------------|-------------------------||-------------------------|--------------0--0--0--0-||-------------------------|--0--0--0--0--0--0--0--0-||--0--0--0--0--0--0--0--0-|--0--0--0--0--0--0--0--0-| . . . . . . . .
[CHORUS]|-------------------|--------------|--------------------|--------------||-------------------|--------------|--------------------|--------------||-------12-12-12-12-|-12-11--11----|--------12-12-12-12-|-12-14--11----||-2-2---------------|--------------|-2-0-2--------------|--------------||-2-2---------------|--------------|-2-0-2--------------|--------------||-2-2---------------|--------------|-2-0-2--------------|--------------|
|
|-------------------|--------------|--------------------|--------------||-------------------|--------------|--------------------|--------------||-------12-12-12-12-|-12-11--11----|--------12-12-12-12-|-12-14--11----||-2-2---------------|--------------|-2-0-2--------------|--------------||-2-2---------------|--------------|-2-0-2--------------|--------------||-2-2---------------|--------------|-2-0-2--------------|--------------|
|-----------------|-----------------|-----------------|----------------------||-----------------|-----------------|-----------------|-12p10------10p8------||-----------------|-----------------|-----------------|-------12p9------11p7-||-----5-----5-----|-5---5---7---5---|-----4-----4---4-|----------------------||-3-3---3-3---3-3-|---3---3---3---3-|-2-2---2-2---2---|----------------------||-----------------|-----------------|-----------------|----------------------|| . . . . . . . . . . . . . . .
|
|-----------------|-----------------|-----------------|----------------------||-----------------|-----------------|-----------------|-12p10------10p8------||-----------------|-----------------|-----------------|-------12p9------11p7-||-----5-----5-----|-5---5---7---5---|-----4-----4---4-|----------------------||-3-3---3-3---3-3-|---3---3---3---3-|-2-2---2-2---2---|----------------------||-----------------|-----------------|-----------------|----------------------| . . . . . . . . . . . . . . .
|-----------------------|----------------|---------------------|-----------||-----------------------|----------------|---------------------|-----------||-----------12-12-12-12-|-12-11--11------|------12-12-12-12-12-|-14--11----||-2-2-------------------|--------------2-|-0-2-----------------|-----------||-2-2-------------------|--------------2-|-0-2-----------------|-----------||-2-2-------------------|--------------2-|-0-2-----------------|-----------|
|
|-----------------------|----------------|---------------------|-----------||-----------------------|----------------|---------------------|-----------||-----------12-12-12-12-|-12-11--11------|------12-12-12-12-12-|-14--11----||-2-2-------------------|--------------2-|-0-2-----------------|-----------||-2-2-------------------|--------------2-|-0-2-----------------|-----------||-2-2-------------------|--------------2-|-0-2-----------------|-----------|
|
| Gtr III|-----------------------|----------------|---------------------|-----------||-----------------------|----------------|---------------------|-----------||-9+++(9)\--------------|----------------|---------------------|-----------||-----------------------|----------------|---------------------|-----------||-----------------------|----------------|---------------------|-----------||-----------------------|----------------|---------------------|-----------|
|-----------------|-----------------|-----------------|----------------------||-----------------|-----------------|-----------------|-12p10------10p8------||-----------------|-----------------|-----------------|-------12p9------11p7-||-----5-----5-----|-5---5---7---5---|-----4-----4---4-|----------------------||-3-3---3-3---3-3-|---3---3---3---3-|-2-2---2-2---2---|----------------------||-----------------|-----------------|-----------------|----------------------|| . . . . . . . . . . . . . . .
|
|-----------------|-----------------|-----------------|----------------------||-----------------|-----------------|-----------------|-12p10------10p8------||-----------------|-----------------|-----------------|-------12p9------11p7-||-----5-----5-----|-5---5---7---5---|-----4-----4---4-|----------------------||-3-3---3-3---3-3-|---3---3---3---3-|-2-2---2-2---2---|----------------------||-----------------|-----------------|-----------------|----------------------| . . . . . . . . . . . . . . .
[PRE-VERSE]|---------------------|----------------------------------------||---------------------|----------------------------------------||---------------------|----------------------------------------||-2-2-2--2-2-2--2-2-2+|+(2)------------------------------------||-2-2-2--2-2-2--2-2-2+|+(2)------------------------------------||-2-2-2--2-2-2--2-2-2+|+(2)---0----0----0----0----0----0----0--|
|
|---------------------|----------------------------------------||---------------------|----------------------------------------||---------------------|----------------------------------------||-2-2-2--2-2-2--2-2-2+|+(2)-<12>-<12>-<12>-<12>-<12>-<12>-<12>-||-2-2-2--2-2-2--2-2-2+|+(2)------------------------------------||-2-2-2--2-2-2--2-2-2+|+(2)------------------------------------|
|
| Gtr III|---------------------|----------------------------------------||---------------------|----------------------------------------||-9~~~~~~~~~~~~~~~~~~~|----------------------------------------||---------------------|----------------------------------------||---------------------|----------------------------------------||---------------------|----------------------------------------|
|---------------------|----------------------------------------||---------------------|----------------------------------------||---------------------|----------------------------------------||-2-2-2--2-2-2--2-2-2+|+(2)------------------------------------||-2-2-2--2-2-2--2-2-2+|+(2)------------------------------------||-2-2-2--2-2-2--2-2-2+|+(2)---0----0----0----0----0----0----0--|
|
|---------------------|----------------------------------------||---------------------|----------------------------------------||---------------------|----------------------------------------||-2-2-2--2-2-2--2-2-2+|+(2)-<12>-<12>-<12>-<12>-<12>-<12>-<12>-||-2-2-2--2-2-2--2-2-2+|+(2)------------------------------------||-2-2-2--2-2-2--2-2-2+|+(2)------------------------------------|
|---------------------|----------------------------------------||---------------------|----------------------------------------||---------------------|----------------------------------------||-2-2-2--2-2-2--2-2-2+|+(2)------------------------------------||-2-2-2--2-2-2--2-2-2+|+(2)------------------------------------||-2-2-2--2-2-2--2-2-2+|+(2)---0----0----0----0----0----0----0--|
|
|---------------------|----------------------------------------||---------------------|----------------------------------------||---------------------|----------------------------------------||-2-2-2--2-2-2--2-2-2+|+(2)-<12>-<12>-<12>-<12>-<12>-<12>-<12>-||-2-2-2--2-2-2--2-2-2+|+(2)------------------------------------||-2-2-2--2-2-2--2-2-2+|+(2)------------------------------------|
|---------------------|-----------------||---------------------|-----------------||---------------------|-----------------||-2-2-2--2-2-2--2-2-2-|--2-5-2-5-2++(2)-||-2-2-2--2-2-2--2-2-2-|--2-5-2-5-2++(2)-||-2-2-2--2-2-2--2-2-2-|--2-5-2-5-2++(2)-|
|
|---------------------|-----------------||---------------------|-----------------||---------------------|-----------------||-2-2-2--2-2-2--2-2-2-|--2-5-2-5-2++(2)-||-2-2-2--2-2-2--2-2-2-|--2-5-2-5-2++(2)-||-2-2-2--2-2-2--2-2-2-|--2-5-2-5-2++(2)-|
[VERSE]|-------------------------|-------------------------||-------------------------|-------------------------||-12----------------12----|-------------12----12----||-------------------------|-------------------------||----10-10-10-10-10----10-|-10-10-10-10----10----10-||-------------------------|-------------------------|| . . . . . . . . . . . .
|
|-------------------------|-------------------------||-12----------------12----|-------------12----12----||-------------------------|-------------------------||----14-14-14-14-14----14-|-14-14-14-14----14----14-||-------------------------|-------------------------||-------------------------|-------------------------| . . . . . . . . . . . .
|-------------------------|-------------------------||-------------------------|-------------------------||-11----------------11----|-------------11----11----||-------------------------|-------------------------||-----9--9--9--9--9-----9-|--9--9--9--9-----9-----9-||-------------------------|-------------------------|| . . . . . . . . . . . .
|
|-------------------------|-------------------------||-10----------------10----|-------------10----10----||-------------------------|-------------------------||----12-12-12-12-12----12-|-12-12-12-12----12----12-||-------------------------|-------------------------||-------------------------|-------------------------| . . . . . . . . . . . .
|-------------------------|-------------------------||-------------------------|-------------------------||-12----------------12----|-------------12----12----||-------------------------|-------------------------||----10-10-10-10-10----10-|-10-10-10-10----10----10-||-------------------------|-------------------------|| . . . . . . . . . . . .
|
|-------------------------|-------------------------||-12----------------12----|-------------12----12----||-------------------------|-------------------------||----14-14-14-14-14----14-|-14-14-14-14----14----14-||-------------------------|-------------------------||-------------------------|-------------------------| . . . . . . . . . . . .
|-------------------------|-----------------------||-------------------------|-----------------------||-11----------------11----|-------------11h12p11--||-------------------------|-----------------------||-----9--9--9--9--9-----9-|--9--9--9--9-----------||-------------------------|-----------------------|| . . . . . . . . . .
|
|-------------------------|-----------------------||-10----------------10----|-------------10h12p10--||-------------------------|-----------------------||----12-12-12-12-12----12-|-12-12-12-12-----------||-------------------------|-----------------------||-------------------------|-----------------------| . . . . . . . . . .
|-------------------------|-------------------------||-------------------------|-------------------------||-12----------------12----|-------------12----12----||-------------------------|-------------------------||----10-10-10-10-10----10-|-10-10-10-10----10----10-||-------------------------|-------------------------|| . . . . . . . . . . . .
|
|-------------------------|-------------------------||-12----------------12----|-------------12----12----||-------------------------|-------------------------||----14-14-14-14-14----14-|-14-14-14-14----14----14-||-------------------------|-------------------------||-------------------------|-------------------------| . . . . . . . . . . . .
|-------------------------|-------------------------||-------------------------|-------------------------||-11----------------11----|-------------11----11----||-------------------------|-------------------------||-----9--9--9--9--9-----9-|--9--9--9--9-----9-----9-||-------------------------|-------------------------|| . . . . . . . . . . . .
|
|-------------------------|-------------------------||-10----------------10----|-------------10----10----||-------------------------|-------------------------||----12-12-12-12-12----12-|-12-12-12-12----12----12-||-------------------------|-------------------------||-------------------------|-------------------------| . . . . . . . . . . . .
|-------------------------|-------------------------||-------------------------|-------------------------||-12----------------12----|-------------12----12----||-------------------------|-------------------------||----10-10-10-10-10----10-|-10-10-10-10----10----10-||-------------------------|-------------------------|| . . . . . . . . . . . .
|
|-------------------------|-------------------------||-12----------------12----|-------------12----12----||-------------------------|-------------------------||----14-14-14-14-14----14-|-14-14-14-14----14----14-||-------------------------|-------------------------||-------------------------|-------------------------| . . . . . . . . . . . .
|-------------------------|-------------------------||-------------------------|-------------------------||-12----------------12----|-------------12----12----||----14-14-14-14-14----14-|-14-14-14-14----14----14-||-------------------------|-------------------------||-------------------------|-------------------------|
| . . . . . . . . . . . .|-------------------------|-------------------------||-------------------------|-------------------------||-------------------------|-------------------------||-------------------------|-------------------------||-------------------------|--------------2--2--2--2-||--2--2--2--2--3--2--2--2-|--2--3--2--2--2--2--2--2-|
[CHORUS]|-------------------|----------------|---------------------|-----------||-------------------|----------------|---------------------|-----------||-------12-12-12-12-|-12-11--11------|------12-12-12-12-12-|-14--11----||-2-2---------------|--------------2-|-0-2-----------------|-----------||-2-2---------------|--------------2-|-0-2-----------------|-----------||-2-2---------------|--------------2-|-0-2-----------------|-----------|
|
|-------------------|----------------|---------------------|-----------||-------------------|----------------|---------------------|-----------||-------12-12-12-12-|-12-11--11------|------12-12-12-12-12-|-14--11----||-2-2---------------|--------------2-|-0-2-----------------|-----------||-2-2---------------|--------------2-|-0-2-----------------|-----------||-2-2---------------|--------------2-|-0-2-----------------|-----------|
|-----------------|-----------------|-----------------|----------------------||-----------------|-----------------|-----------------|-12p10------10p8------||-----------------|-----------------|-----------------|-------12p9------11p7-||-----5-----5-----|-5---5---7---5---|-----4-----4---4-|----------------------||-3-3---3-3---3-3-|---3---3---3---3-|-2-2---2-2---2---|----------------------||-----------------|-----------------|-----------------|----------------------|| . . . . . . . . . . . . . . .
|
|-----------------|-----------------|-----------------|----------------------||-----------------|-----------------|-----------------|-12p10------10p8------||-----------------|-----------------|-----------------|-------12p9------11p7-||-----5-----5-----|-5---5---7---5---|-----4-----4---4-|----------------------||-3-3---3-3---3-3-|---3---3---3---3-|-2-2---2-2---2---|----------------------||-----------------|-----------------|-----------------|----------------------| . . . . . . . . . . . . . . .
|-----------------------|----------------|---------------------|-----------||-----------------------|----------------|---------------------|-----------||-----------12-12-12-12-|-12-11--11------|------12-12-12-12-12-|-14--11----||-2-2-------------------|--------------2-|-0-2-----------------|-----------||-2-2-------------------|--------------2-|-0-2-----------------|-----------||-2-2-------------------|--------------2-|-0-2-----------------|-----------|
|
|-----------------------|----------------|---------------------|-----------||-----------------------|----------------|---------------------|-----------||-----------12-12-12-12-|-12-11--11------|------12-12-12-12-12-|-14--11----||-2-2-------------------|--------------2-|-0-2-----------------|-----------||-2-2-------------------|--------------2-|-0-2-----------------|-----------||-2-2-------------------|--------------2-|-0-2-----------------|-----------|
|
| Gtr III|-----------------------|----------------|---------------------|-----------||-----------------------|----------------|---------------------|-----------||-9+++(9)\--------------|----------------|---------------------|-----------||-----------------------|----------------|---------------------|-----------||-----------------------|----------------|---------------------|-----------||-----------------------|----------------|---------------------|-----------|
|-----------------|-----------------|-----------------|----------------------||-----------------|-----------------|-----------------|-12p10------10p8------||-----------------|-----------------|-----------------|-------12p9------11p7-||-----5-----5-----|-5---5---7---5---|-----4-----4---4-|----------------------||-3-3---3-3---3-3-|---3---3---3---3-|-2-2---2-2---2---|----------------------||-----------------|-----------------|-----------------|----------------------|| . . . . . . . . . . . . . . .
|
|-----------------|-----------------|-----------------|----------------------||-----------------|-----------------|-----------------|-12p10------10p8------||-----------------|-----------------|-----------------|-------12p9------11p7-||-----5-----5-----|-5---5---7---5---|-----4-----4---4-|----------------------||-3-3---3-3---3-3-|---3---3---3---3-|-2-2---2-2---2---|----------------------||-----------------|-----------------|-----------------|----------------------| . . . . . . . . . . . . . . .
[GUITAR BREAK]|--------------|-----||--------------|-----||-9++++(9)\----|-----||--------------|-----||--------------|-----||--------------|-----|
| |
|--------------|-----||--------------|-----||-9++++(9)\----|-----||--------------|-----||--------------|-----||--------------|-----|
[BRIDGE]|---------------|------------------|-----------------|-----------------||---------------|------------------|-----------------|-----------------||-5--5--5-5-5-5+|+(5)--5---5-5-5-5+|+(5)--5--5-5-5-5+|+(5)--5--5-5-5-5-||-5--5--5-5-5-5+|+(5)--5---5-5-5-5+|+(5)--5--5-5-5-5+|+(5)--5--5-5-5-5-||-3--3--3-3-3-3+|+(3)--3---3-3-3-3+|+(3)--3--3-3-3-3+|+(3)--3--3-3-3-3-||---------------|------------------|-----------------|-----------------|
| |
|---------------|------------------|-----------------|-----------------||-8-----7-------|--8------12-------|-10------8-------|--7--------------||---------------|------------------|-----------------|-----------------||---------------|------------------|-----------------|-----------------||---------------|------------------|-----------------|-----------------||---------------|------------------|-----------------|-----------------|
|-----------------------|-----------------------||-----------------------|-----------------------||-12--12-11-----9+++(9)-|-12--12-11-----9+++(9)-||-----------12----------|-----------12----------||-----------------------|-----------------------||-----------------------|-----------------------|
|
|-----------------------|-----------------------||-----------------------|-----------------------||-----------------------|-----------------------||--9---9--7-------------|--9---9--7-------------||------------9-10++(10)-|------------9-10++(10)-||-----------------------|-----------------------|
|-----------------------|-----------------------||-----------------------|-----------------------||-12--12-11-----9+++(9)-|-12--12-11-----9+++(9)-||-----------12----------|-----------12----------||-----------------------|-----------------------||-----------------------|-----------------------|
|
|-----------------------|-----------------------||-----------------------|-----------------------||-----------------------|-----------------------||--9---9--7-------------|--9---9--7-------------||------------9-10++(10)-|------------9-10++(10)-||-----------------------|-----------------------|
|---------------|------------------|-----------------|-----------------||---------------|------------------|-----------------|-----------------||-5--5--5-5-5-5+|+(5)--5---5-5-5-5+|+(5)--5--5-5-5-5+|+(5)--5--5-5-5-5-||-5--5--5-5-5-5+|+(5)--5---5-5-5-5+|+(5)--5--5-5-5-5+|+(5)--5--5-5-5-5-||-3--3--3-3-3-3+|+(3)--3---3-3-3-3+|+(3)--3--3-3-3-3+|+(3)--3--3-3-3-3-||---------------|------------------|-----------------|-----------------|
| |
|---------------|------------------|-----------------|-----------------||-8-----7-------|--8------12-------|-10------8-------|--7--------------||---------------|------------------|-----------------|-----------------||---------------|------------------|-----------------|-----------------||---------------|------------------|-----------------|-----------------||---------------|------------------|-----------------|-----------------|
|-----------------------|-----------------------||-----------------------|-----------------------||-12--12-11-----9+++(9)-|-12--12-11-----9+++(9)-||-----------12----------|-----------12----------||-----------------------|-----------------------||-----------------------|-----------------------|
|
|-----------------------|-----------------------||-----------------------|-----------------------||-----------------------|-----------------------||--9---9--7-------------|--9---9--7-------------||------------9-10++(10)-|------------9-10++(10)-||-----------------------|-----------------------|
|-----------------------|-----------------------||-----------------------|-----------------------||-12--12-11-----9+++(9)-|-12--12-11-----9+++(9)-||-----------12----------|-----------12----------||-----------------------|-----------------------||-----------------------|-----------------------|
|
|-----------------------|-----------------------||-----------------------|-----------------------||-----------------------|-----------------------||--9---9--7-------------|--9---9--7-------------||------------9-10++(10)-|------------9-10++(10)-||-----------------------|-----------------------|
|---------------|------------------|-----------------|-----------------||---------------|------------------|-----------------|-----------------||-5--5--5-5-5-5+|+(5)--5---5-5-5-5+|+(5)--5--5-5-5-5+|+(5)--5--5-5-5-5-||-5--5--5-5-5-5+|+(5)--5---5-5-5-5+|+(5)--5--5-5-5-5+|+(5)--5--5-5-5-5-||-3--3--3-3-3-3+|+(3)--3---3-3-3-3+|+(3)--3--3-3-3-3+|+(3)--3--3-3-3-3-||---------------|------------------|-----------------|-----------------|
| |
|---------------|------------------|-----------------|-----------------||-8-----7-------|--8------12-------|-10------8-------|--7--------------||---------------|------------------|-----------------|-----------------||---------------|------------------|-----------------|-----------------||---------------|------------------|-----------------|-----------------||---------------|------------------|-----------------|-----------------|
|-----------------------|-----------------------||-----------------------|-----------------------||-12--12-11-----9+++(9)-|-12--12-11-----9+++(9)-||-----------12----------|-----------12----------||-----------------------|-----------------------||-----------------------|-----------------------|
|
|-----------------------|-----------------------||-----------------------|-----------------------||-----------------------|-----------------------||--9---9--7-------------|--9---9--7-------------||------------9-10++(10)-|------------9-10++(10)-||-----------------------|-----------------------|
|-----------------------|-----------------------||-----------------------|-----------------------||-12--12-11-----9+++(9)-|-12--12-11-----9+++(9)-||-----------12----------|-----------12----------||-----------------------|-----------------------||-----------------------|-----------------------|
|
|-----------------------|-----------------------||-----------------------|-----------------------||-----------------------|-----------------------||--9---9--7-------------|--9---9--7-------------||------------9-10++(10)-|------------9-10++(10)-||-----------------------|-----------------------|
|---------------|------------------|-----------------|-----------------||---------------|------------------|-----------------|-----------------||-5--5--5-5-5-5+|+(5)--5---5-5-5-5+|+(5)--5--5-5-5-5+|+(5)--5--5-5-5-5-||-5--5--5-5-5-5+|+(5)--5---5-5-5-5+|+(5)--5--5-5-5-5+|+(5)--5--5-5-5-5-||-3--3--3-3-3-3+|+(3)--3---3-3-3-3+|+(3)--3--3-3-3-3+|+(3)--3--3-3-3-3-||---------------|------------------|-----------------|-----------------|
| |
|---------------|------------------|-----------------|-----------------||-8-----7-------|--8------12-------|-10------8-------|--7--------------||---------------|------------------|-----------------|-----------------||---------------|------------------|-----------------|-----------------||---------------|------------------|-----------------|-----------------||---------------|------------------|-----------------|-----------------|
[PRE-CHORUS]|--------------------------|----------------||--------------------------|----------------||--------------------------|----------------||--------4---------4-------|-4-----4-----4--||--------------------------|----------------||-2---2------2---2---2---2-|---2-2---2-2----|| . . . . . . . . . .
|
|--------------------------|----------------||--------------------------|----------------||--------------------------|----------------||--------------------------|----------------||-2-2-2------2-2-2---2-2-2-|----------------||-2-2-2------2-2-2---2-2-2-|----------------|
|
|--------------------------|----------------||--------------------------|----------------||--------------------------|----------------||-2+++++(2)\---------------|----------------||-2+++++(2)\---------------|----------------||-2+++++(2)\---------------|----------------|
|-----------------------|-----------------||-----------------------|-----------------||-----------------------|-----------------||-------5-------5-------|-5-----5-----5S7-||-----------------------|-----------------||-2---2---2---2---2---2-|---2-2---2-2-----|| . . . . . . . . . .
|
|-----------------------|-----------------||-----------------------|-----------------||-----------------------|-----------------||-----------------------|-----------------||-2-2-2---2-2-2---2-2-2-|-----------------||-2-2-2---2-2-2---2-2-2-|-----------------|
|
|-----------------------|-----------------||-----------------------|-----------------||-----------------------|-----------------||-----------------------|-----------------||-----------------------|-----------------||-----------------------|-----------------|
|-----------------------|----------------||-----------------------|----------------||-----------------------|----------------||-------4-------4-------|-4-----4-----4--||-----------------------|----------------||-2---2---2---2---2---2-|---2-2---2-2----|| . . . . . . . . . .
|
|-----------------------|----------------||-----------------------|----------------||-----------------------|----------------||-----------------------|----------------||-2-2-2---2-2-2---2-2-2-|----------------||-2-2-2---2-2-2---2-2-2-|----------------|
|-----------------------|-----------------||-----------------------|-----------------||-----------------------|-----------------||-------5-------5-----5-|--2-5-2-5-2++(2)-||-----------------------|--2-5-2-5-2++(2)-||-2---2---2---2---2-----|--2-5-2-5-2++(2)-|| . . . . .
|
|-----------------------|-----------------||-----------------------|-----------------||-----------------------|-----------------||-----------------------|--2-5-2-5-2++(2)-||-2-2-2---2-2-2---2-2-2-|--2-5-2-5-2++(2)-||-2-2-2---2-2-2---2-2-2-|--2-5-2-5-2++(2)-|
[OUT-CHORUS]|-------------------|----------------|---------------------|-----------||-------------------|----------------|---------------------|-----------||-------14-14-14-14-|-14-13--13------|------14-14-14-14-14-|-16--13----||-4-4---------------|--------------4-|-2-4-----------------|-----------||-4-4---------------|--------------4-|-2-4-----------------|-----------||-4-4---------------|--------------4-|-2-4-----------------|-----------|
|
|-------------------|----------------|---------------------|-----------||-------------------|----------------|---------------------|-----------||-------14-14-14-14-|-14-13--13------|------14-14-14-14-14-|-16--13----||-4-4---------------|--------------4-|-2-4-----------------|-----------||-4-4---------------|--------------4-|-2-4-----------------|-----------||-4-4---------------|--------------4-|-2-4-----------------|-----------|
|-----------------|-----------------|-----------------|------------------------||-----------------|-----------------|-----------------|-14p12-------12p10------||-----------------|-----------------|-----------------|-------14p11-------13p9-||-----7-----7-----|-7---7---9---7---|-----6-----6---6-|------------------------||-5-5---5-5---5-5-|---5---5---5---5-|-4-4---4-4---4---|------------------------||-----------------|-----------------|-----------------|------------------------|| . . . . . . . . . . . . . . .
|
|-----------------|-----------------|-----------------|------------------------||-----------------|-----------------|-----------------|-14p12-------12p10------||-----------------|-----------------|-----------------|-------14p11-------13p9-||-----7-----7-----|-7---7---9---7---|-----6-----6---6-|------------------------||-5-5---5-5---5-5-|---5---5---5---5-|-4-4---4-4---4---|------------------------||-----------------|-----------------|-----------------|------------------------| . . . . . . . . . . . . . . .
|-------------------------|----------------|---------------------|-----------||-------------------------|----------------|---------------------|-----------||-------------14-14-14-14-|-14-13--13------|------14-14-14-14-14-|-16--13----||--4-4--------------------|--------------4-|-2-4-----------------|-----------||--4-4--------------------|--------------4-|-2-4-----------------|-----------||--4-4--------------------|--------------4-|-2-4-----------------|-----------|
|
|-------------------------|----------------|---------------------|-----------||-------------------------|----------------|---------------------|-----------||-------------14-14-14-14-|-14-13--13------|------14-14-14-14-14-|-16--13----||--4-4--------------------|--------------4-|-2-4-----------------|-----------||--4-4--------------------|--------------4-|-2-4-----------------|-----------||--4-4--------------------|--------------4-|-2-4-----------------|-----------|
| |
|-------------------------|----------------|---------------------|-----------||-------------------------|----------------|---------------------|-----------||-11+++(11)\--------------|----------------|---------------------|-----------||-------------------------|----------------|---------------------|-----------||-------------------------|----------------|---------------------|-----------||-------------------------|----------------|---------------------|-----------|
|-----------------|-----------------|-----------------|------------------------||-----------------|-----------------|-----------------|-14p12-------12p10------||-----------------|-----------------|-----------------|-------14p11-------13p9-||-----7-----7-----|-7---7---9---7---|-----6-----6---6-|------------------------||-5-5---5-5---5-5-|---5---5---5---5-|-4-4---4-4---4---|------------------------||-----------------|-----------------|-----------------|------------------------|| . . . . . . . . . . . . . . .
|
|-----------------|-----------------|-----------------|------------------------||-----------------|-----------------|-----------------|-14p12-------12p10------||-----------------|-----------------|-----------------|-------14p11-------13p9-||-----7-----7-----|-7---7---9---7---|-----6-----6---6-|------------------------||-5-5---5-5---5-5-|---5---5---5---5-|-4-4---4-4---4---|------------------------||-----------------|-----------------|-----------------|------------------------| . . . . . . . . . . . . . . .
[OUTRO PT.1]|-------------------|--------------------|------------------|----------------||-------------------|--------------------|------------------|----------------||-------------------|--------------------|------------------|----------------||--4-2-4-2-5-4++(4)-|---4---2-4-2-0-0-0--|-4-2-4-2-5-4++(4)-|-4-2-4-2-0-0-0--||--4-2-4-2-5-4++(4)-|---4---2-4-2-0-0-0--|-4-2-4-2-5-4++(4)-|-4-2-4-2-0-0-0--||--4-2-4-2-5-4++(4)-|---4---2-4-2-0-0-0--|-4-2-4-2-5-4++(4)-|-4-2-4-2-0-0-0--|
|
|-------------------|--------------------|------------------|----------------||-------------------|--------------------|------------------|----------------||-------------------|--------------------|------------------|----------------||--4-2-4-2-5-4++(4)-|---4---2-4-2-0-0-0--|-4-2-4-2-5-4++(4)-|-4-2-4-2-0-0-0--||--4-2-4-2-5-4++(4)-|---4---2-4-2-0-0-0--|-4-2-4-2-5-4++(4)-|-4-2-4-2-0-0-0--||--4-2-4-2-5-4++(4)-|---4---2-4-2-0-0-0--|-4-2-4-2-5-4++(4)-|-4-2-4-2-0-0-0--|
| |
|-------------------|--------------------|------------------|----------------||-------------------|--------------------|------------------|----------------||-11++++++++++++++++|+(11)\--------------|------------------|----------------||-------------------|--------------------|------------------|----------------||-------------------|--------------------|------------------|----------------||-------------------|--------------------|------------------|----------------|
|------------------|---------------|------------------|-----------------||------------------|---------------|------------------|-----------------||------------------|---------------|------------------|-----------------||-4-2-4-2-5-4++(4)-|-4-2-4-2-0-0-0-|-4-2-4-2-5-4++(4)-|-4-2-4-2-0-0-0---||-4-2-4-2-5-4++(4)-|-4-2-4-2-0-0-0-|-4-2-4-2-5-4++(4)-|-4-2-4-2-0-0-0---||-4-2-4-2-5-4++(4)-|-4-2-4-2-0-0-0-|-4-2-4-2-5-4++(4)-|-4-2-4-2-0-0-0---|
|
|------------------|---------------|------------------|-----------------||------------------|---------------|------------------|-----------------||------------------|---------------|------------------|-----------------||-4-2-4-2-5-4++(4)-|-4-2-4-2-0-0-0-|-4-2-4-2-5-4++(4)-|-4-2-4-2-0-0-0---||-4-2-4-2-5-4++(4)-|-4-2-4-2-0-0-0-|-4-2-4-2-5-4++(4)-|-4-2-4-2-0-0-0---||-4-2-4-2-5-4++(4)-|-4-2-4-2-0-0-0-|-4-2-4-2-5-4++(4)-|-4-2-4-2-0-0-0---|
[OUTRO PT.2]|---------------|--------------|---------------|----------------||---------------|--------------|---------------|----------------||---------------|--------------|---------------|----------------||-4-2-4--5-4-5--|-4-2-4--0-0-0-|-4-2-4--5-4-5--|-4-2-4--0-0-0---||-4-2-4--5-4-5--|-4-2-4--0-0-0-|-4-2-4--5-4-5--|-4-2-4--0-0-0---||-4-2-4--5-4-5--|-4-2-4--0-0-0-|-4-2-4--5-4-5--|-4-2-4--0-0-0---|
|
|---------------|--------------|---------------|----------------||---------------|--------------|---------------|----------------||---------------|--------------|---------------|----------------||-4-2-4--5-4-5--|-4-2-4--0-0-0-|-4-2-4--5-4-5--|-4-2-4--0-0-0---||-4-2-4--5-4-5--|-4-2-4--0-0-0-|-4-2-4--5-4-5--|-4-2-4--0-0-0---||-4-2-4--5-4-5--|-4-2-4--0-0-0-|-4-2-4--5-4-5--|-4-2-4--0-0-0---|
|---------------|--------------|---------------|----------------||---------------|--------------|---------------|----------------||---------------|--------------|---------------|----------------||-4-2-4--5-4-5--|-4-2-4--0-0-0-|-4-2-4--5-4-5--|-4-2-4--0-0-0---||-4-2-4--5-4-5--|-4-2-4--0-0-0-|-4-2-4--5-4-5--|-4-2-4--0-0-0---||-4-2-4--5-4-5--|-4-2-4--0-0-0-|-4-2-4--5-4-5--|-4-2-4--0-0-0---|
|
|---------------|--------------|---------------|----------------||---------------|--------------|---------------|----------------||---------------|--------------|---------------|----------------||-4-2-4--5-4-5--|-4-2-4--0-0-0-|-4-2-4--5-4-5--|-4-2-4--0-0-0---||-4-2-4--5-4-5--|-4-2-4--0-0-0-|-4-2-4--5-4-5--|-4-2-4--0-0-0---||-4-2-4--5-4-5--|-4-2-4--0-0-0-|-4-2-4--5-4-5--|-4-2-4--0-0-0---|
there is all of it...have fun
Please rate this tab:
x1.0