Cabrel Francis - Je Laime A Mourir tab

je l'aime a mourir ecrit par francis cabrel

capo 5 

|---0---------0----------0----------0------||-----1---------1----------1----------1----||-------0---------0----------0----------0--||-----------2--------------------0---------|x 2|-3-------------------2--------------------||------------------------------------------|
|---0---------0---------0---------0------||-----1---------1---------1---------1----||-------0---------0---------0---------0--||-----------2-------------------2--------||-3-------------------3------------------||----------------------------------------|
|---0---------0---------0---------0------||-----1---------1---------1---------1----||-------0---------0---------0---------0--||-----------2-------------------2--------||-2-------------------2------------------||----------------------------------------|
|----0----------0----------||------1----------0--------||--------2----------2------||------------2-------------|x 2|-0------------------------||--------------------------|
|----1----------1----------1----------1--------||------3----------3----------3----------3------||--------2----------2----------2----------2----||-0----------0----------3----------3-----------||----------------------------------------------||----------------------------------------------|
|----1---------1------------------3-------||------1---------1---------0--------0-----||--------2---------2-----4---0--------0---||-----------3-------------------0---------||-----------------------------------------||-3------------------5--------------------|
|---0---------0----------0----------0------||-----1---------1----------1----------1----||-------0---------0----------0----------0--||-----------2--------------------0---------||-3-------------------2--------------------||------------------------------------------|
|----0----------0----------||------1----------0--------||--------2----------2------||------------2-------------|x 2|-0------------------------||--------------------------|
|---0---------0---------0---------0------||-----1---------1---------1---------1----||-------0---------0---------0---------0--||-----------2-------------------2--------||-2-------------------2------------------||----------------------------------------|
|----0----------0----------||------1----------0--------||--------2----------2------||------------2-------------|x 2|-0------------------------||--------------------------|
|----1----------1----------1----------1--------||------3----------3----------3----------3------||--------2----------2----------2----------2----||-0----------0----------3----------3-----------||----------------------------------------------||----------------------------------------------|
|----1---------1---------3--------3-------||------1---------1---------0--------0-----||--------2---------2---------0--------0---||-----------3-------------------0---------||-----------------------------------------||-3------------------5--------------------|
|---0---------0----------0----------0------||-----1---------1----------1----------1----||-------0---------0----------0----------0--||-----------2--------------------0---------||-3-------------------2--------------------||------------------------------------------|
|----0----------0----------||------1----------0--------||--------2----------2------||------------2-------------|x 2|-0------------------------||--------------------------|
|----0---------0----------0---------0------||------0---------0----------1---------1----||--------1---------1----------2---------0--||-----------2--------------------2---------||-2--------------------0-------------------||------------------------------------------|
|---3---------3---------0--------0-----||-----0---------0---------1--------1---||-------0---------0---------0--------0-||----------0-------------------2-------||---------------------3----------------||-3------------------------------------|
|----0---------0----------0---------0------||------0---------0----------1---------1----||--------1---------1----------2---------0--||-----------2--------------------2---------||-2--------------------0-------------------||------------------------------------------|
|---1---------1------||-----1---------1----||-------3---------3--||----------3---------||-1------------------||--------------------|
|---0---------0----------0----------0------||-----1---------1----------1----------1----||-------0---------0----------0----------0--||-----------2--------------------0---------|x 2|-3-------------------2--------------------||------------------------------------------|
|---0---------0---------0---------0------||-----1---------1---------1---------1----||-------0---------0---------0---------0--||-----------2-------------------2--------||-3-------------------3------------------||----------------------------------------|
|---0---------0---------0---------0------||-----1---------1---------1---------1----||-------0---------0---------0---------0--||-----------2-------------------2--------||-2-------------------2------------------||----------------------------------------|
|----0----------0----------||------1----------0--------||--------2----------2------||------------2-------------|x 2|-0------------------------||--------------------------|
|----1----------1----------1----------1--------||------3----------3----------3----------3------||--------2----------2----------2----------2----||-0----------0----------3----------3-----------||----------------------------------------------||----------------------------------------------|
|----1---------1------------------3-------||------1---------1---------0--------0-----||--------2---------2-----4---0--------0---||-----------3-------------------0---------||-----------------------------------------||-3------------------5--------------------|
|---0---------0----------0----------0------||-----1---------1----------1----------1----||-------0---------0----------0----------0--||-----------2--------------------0---------||-3-------------------2--------------------||------------------------------------------|
|----0----------0----------||------1----------0--------||--------2----------2------||------------2-------------|x 2|-0------------------------||--------------------------|
|---0---------0---------0---------0------||-----1---------1---------1---------1----||-------0---------0---------0---------0--||-----------2-------------------2--------||-2-------------------2------------------||----------------------------------------|
|----0----------0----------||------1----------0--------||--------2----------2------||------------2-------------|x 2|-0------------------------||--------------------------|
|----1----------1----------1----------1--------||------3----------3----------3----------3------||--------2----------2----------2----------2----||-0----------0----------3----------3-----------||----------------------------------------------||----------------------------------------------|
|----1---------1---------3--------3-------||------1---------1---------0--------0-----||--------2---------2---------0--------0---||-----------3-------------------0---------||-----------------------------------------||-3------------------5--------------------|
|---0---------0----------0----------0------||-----1---------1----------1----------1----||-------0---------0----------0----------0--||-----------2--------------------0---------||-3-------------------2--------------------||------------------------------------------|
|----0----------0----------||------1----------0--------||--------2----------2------||------------2-------------|x 2|-0------------------------||--------------------------|
|----0---------0----------0---------0------||------0---------0----------1---------1----||--------1---------1----------2---------0--||-----------2--------------------2---------||-2--------------------0-------------------||------------------------------------------|
|---3---------3---------0--------0-----||-----0---------0---------1--------1---||-------0---------0---------0--------0-||----------0-------------------2-------||---------------------3----------------||-3------------------------------------|
|----0---------0----------0---------0------||------0---------0----------1---------1----||--------1---------1----------2---------0--||-----------2--------------------2---------||-2--------------------0-------------------||------------------------------------------|
|---1---------1------||-----1---------1----||-------3---------3--||----------3---------||-1------------------||--------------------|
steve,... pompom020366@hotmail.com pompom@sympatico.ca
Tap to rate this tab
 
# A B C D E F G H I J K L M N O P Q R S T U V W X Y Z