Cairokee - Matloob Za3eem tab

Cairokee - Matloob Za3eem.
Tuning: Standard
Tab by Hussein SObh
if you have any complaints about the tab email me on: hussob@hotmail.com
you can check my youtube cover to help you play this:
http://www.youtube.com/watch?
v=nU2lhvOO7HY&feature=plcp&context=C2bcfcUDOEgsToPDskIqt4FokJ0CWm-RBrx03q05 
Cairokee website: www.cairokee.com

*PLEASE PAY ATTENTION TO ALL THE CAPITAL LETTERED SENTENCES


CAPO ON 2ND FRET!!

Verse: Amir Eid's part

00:18 acoustic

|------------------------2h32p0-------------------||-----0-------1-------3-----------0---------------||----0-0-----0-0-----2----------0-----------------||------------------0------------------------------||--2-------3--------------------------------------||-------------------------------------------------|
REPEAT UNTIL "maf3ool beeh...." then play: Chorus:
|-------------------------------------------------||-----1----1----3----3----1----1----3----3-----1~-||----0-0--0-0--2-2--2-2--0-0--0-0--2-2--2-2----2~-||----------------------------------------------2~-||---3----3----0----0----3----3----0----0----------||-------------------------------------------------|
PLAY THE VERSE AND CHORUS AGAIN TWICE UNTIL HE SAYS "3ala ras 5azoo2..." Now, REMOVE THE CAPO,switch to clean tone, add delay, and play this: Bridge 1: Sherif Hawary.
|-------------------------------------------------||--12-14-12-12-----------12-14-12-12--------------||11-----------11~-----11------------9~------------||-------------------------------------------------||-------------------------------------------------||-------------------------------------------------|
|----------------12-------------------------------||----12-14-12-12---12-12----12-14-12-12-----------||-11---------------------11-------------11~-------||-------------------------------------------------||-------------------------------------------------||-------------------------------------------------|
Verse: matloob za3eem may2olsh 3al 5awaf 7akeem
|--------------12/14-14~------------------------9-9-9-7-5-----------------||---------------------------------------------------------7~--------------||-------------------------------------------------------------------------||-------------------------------------------------------------------------||-------------------------------------------------------------------------||-------------------------------------------------------------------------|
.....w ykoon makano f westena
|----------------------------12/14-14-14----------||-------------------------------------------------||-------------------------------------------------||-------------------------------------------------||-------------------------------------------------||-------------------------------------------------|
...fel 2osoor.
|-----------5-4-2~--------------------------------||-------------------------------------------------||-------------------------------------------------||-------------------------------------------------||-------------------------------------------------||-------------------------------------------------|
yeshrab w yakol aklena...
(PLAY THIS THREE TIMES) (PLAY THIS ON THE FOURTH TIME)|---------------------------| |--------------------------||---------------------------| |--------------------------||---9---9--9----------------|}X3 |---9---9---9--------------||-7---7---7--9/11--9/11--9--| |-7---7---7---9/11-9/11-7~-||---------------------------| |--------------------------||---------------------------| |--------------------------|
Bridge 2: Hawary SWITCH YOUR TONE TO DIRTY-CLEAN AND KEEP THE DELAY.
|----------------------------------------------------||----------------------------------------------------||----6-6-4-4-2-1-2-1--------6-6-4-4-2-1-2-1----------||--4-----------------2-4~-4-----------------2~-------||----------------------------------------------------||----------------------------------------------------|
verse: matloob za3eem.
|--xxxx-xx--------------14-14-14-14~--------------||--xxxx-xx----------------------------------------||--xxxx-xx----------------------------------------||--xxxx-xx----------------------------------------||--xxxx-xx----------------------------------------||--xxxx-xx----------------------------------------|
....ykoon ameen.
|----------------14-17-16-14~------------14-12----------------||---------------------------------------------12-10-12-14~-12~||-------------------------------------------------------------||-------------------------------------------------------------||-------------------------------------------------------------||-------------------------------------------------------------|
(figure out the picking speed on your own)
|-------------------------------------------------------------------||--12-14-12-10-12--------10-10-9-9-7-7-7-10-10-10-9-9-9-12-12-12----||----------------11~---9--------------------------------------------||-------------------------------------------------------------------||-------------------------------------------------------------------||-------------------------------------------------------------------|
|-------------------------------------------------||--7-7-7-10-10-10-12-9~---------------------------||-------------------------------------------------||-------------------------------------------------||-------------------------------------------------||-------------------------------------------------|
Chorus: GUITAR 1 (AMIR) 3:50
matloob za3eem... kanoon.|-------------------------------------------------------------------------------||-------------------------------------------------------------------------------||---------------------------------7-7-7-7-7-7-7-7-7-7-7-7-7-7-7-7---------------|PLAY THIS TWICE|--7-7-7-7-7-7-7-7-7-7-7-7-7-7-7--7-7-7-7-7-7-7-7-7-7-7-7-7-7-7-7---------------||--7-7-7-7-7-7-7-7-7-7-7-7-7-7-7--5-5-5-5-5-5-5-5-5-5-5-5-5-5-5-5---------------||--5-5-5-5-5-5-5-5-5-5-5-5-5-5-5------------------------------------------------|
la yoshtarat el shakl eh la yoshtarat el sen eh
|--------------------------------------------------------------------------------||--------------------------------------------------------------------------------||-9-9-9-9-9-9-9-9-9-9-9-9-9-9-9-9--7-7-7-7-7-7-7-7-7-7-7-7-7-7-7-7---------------||-9-9-9-9-9-9-9-9-9-9-9-9-9-9-9-9--7-7-7-7-7-7-7-7-7-7-7-7-7-7-7-7---------------||-7-7-7-7-7-7-7-7-7-7-7-7-7-7-7-7--5-5-5-5-5-5-5-5-5-5-5-5-5-5-5-5---------------||--------------------------------------------------------------------------------|
GUITAR 2 (HAWARY) 4:06
|----------------------------------------12-| |--10-10-9-12-10-9---9~--10-10-9-12-10-9---9| |------------------11-----------------------| |-------------------------------------------|} X2 |-------------------------------------------| |-------------------------------------------|
GUITAR 1 (AMIR) 4:14 4:18 la yoshtarat el mella eh sharto el wa7eed yekoon bashar, bel e5tesaar
|------------------------------||---------------------------------------------------------------||------------------------------||---------------------------------------------------------------||-7-7-7-7-7-7-7-7-7-7-7-7-7-7--||-4-4-4-4-4-4-4-4-4-4-4-4-4-4-4-4-4-4-4-4-4-4-4-4-4-4-4-4-4-4---||-7-7-7-7-7-7-7-7-7-7-7-7-7-7--||-4-4-4-4-4-4-4-4-4-4-4-4-4-4-4-4-4-4-4-4-4-4-4-4-4-4-4-4-4-4---||-9-9-9-9-9-9-9-9-9-9-9-9-9-9--||-2-2-2-2-2-2-2-2-2-2-2-2-2-2-2-2-2-2-2-2-2-2-2-2-2-2-2-2-2-2---||------------------------------||---------------------------------------------------------------|
GUITAR 2 (HAWARY) 4:18
|------------------------------------------------------------------------------------------------||---15-15-15-15-15-15-15-15-15-15-15-15-15-15-15-14-14-14-14-14-14-14-14-14-14-14-14-14-14-14----||------------------------------------------------------------------------------------------------||------------------------------------------------------------------------------------------------||------------------------------------------------------------------------------------------------||------------------------------------------------------------------------------------------------|
BOTH GUITARS END ON: Matloob Dakar.
|-------------------------------------------------||-------------------------------------------------||-------------------------------------------------||--4~---------------------------------------------||--4~---------------------------------------------||--2~---------------------------------------------|
Tap to rate this tab
 
# A B C D E F G H I J K L M N O P Q R S T U V W X Y Z