Voices Of The Dead tab with lyrics by Calabrese - Easy chords and tabs for guitar

Calabrese – Voices Of The Dead tab

Song: Voices of the Dead
Band: Calabrese
Album: The Travelling Vampire Show

Tabbed by: Sam Flowers


Intro. 

|--------------------------------------------------------------| |--------------------------------------------------------------| |--7--7-7-7-----------------6-7---7--7-7-7--------10-10-10--9--| |--x--x-x-x---7-8---8-8-8---x-x---x--x-x-x---7-8--x--x---x--x--| |--5--5-5-5---7-8---6-6-6---4-5---5--5-5-5---7-8--8--8---8--7--| |-------------5-6---6-6-6--------------------5-6---------------|
|-------------------------------------------------| |---------------------------------------8-8-8-8---| |--7--7-7-7-----------------------------8-8-8-8---| |--x--x-x-x---7-8---8-8-8---5-5-5-5-5---6-6-6-6---| |--5--5-5-5---7-8---8-8-8---5-5-5-5-5-------------| |-------------5-6---6-6-6---3-3-3-3-3-------------|
Verse <<<< 4 times
|---------------------------------------------| |---------------------------------------------| |---7--7-7-7-7--------------------------------| |---7--7-7-7-7--8--8-8-8--5--5-5-5--7--7-7-7--| |---5--5-5-5-5--8--8-8-8--5--5-5-5--7--7-7-7--| |---------------6--6-6-6--3--3-3-3--5--5-5-5--| ........... ....... ....... ........
enter Chorus with this:
|--------| |--------| |--------| |-7-7-7--| |-7-7-7--| |-5-5-5--| ......... Chorus:
|----------------------------------------------------------| |----------------------------------------------------------| |--7-7-7-7--10-10-10-10----------10-10-10------------------| |--7-7-7-7--10-10-10-10---8-8-8--10-10-10-----10-10-10-10--| |--5-5-5-5---8---8--8--8--8-8-8--8---8--8-----10-10-10-10--| |-------------------------6-6-6---------------8---8--8--8--| <<< 2 times
|-----------------------------------------------------------| |-----------------------------------------------------------| |--7-7-7-7---5-5-5-5-----------7-7-7-7---5-5-5-5------------| |--7-7-7-7---5-5-5-5--8-8-8-8--7-7-7-7---5-5-5-5--7-7-7-7---| |--5-5-5-5---3-3-3-3--8-8-8-8--5-5-5-5---3-3-3-3--7-7-7-7---| |---------------------6-6-6-6---------------------5-5-5-5---| ...........
Intro. Verse 2:
|--------------------------------------------| |--------------------------------------------| |---7-7-7-7-7--------------------------------| |---x-x-x-x-x--8--8-8-8--5--5-5-5--7--7-7-7--| |---5-5-5-5-5--8--8-8-8--5--5-5-5--7--7-7-7--| |--------------6--6-6-6--3--3-3-3--5--5-5-5--| ....... ........ ........
Chorus Breakdown or whatever you wanna call it
|---------------------------| |---------------------------| |--7-7-7-----9---10--6-6-6--| |--x-x-x-----x---x---x-x-x--| |--5-5-5-----7---8---4-4-4--| |---------------------------|
|-----------------------------------------------------------| |-----------------------------------------------------------| |--7-7-7-----9---10---14--14---14----15--15--15--14--12--9--| |--x-x-x-----x---x-----x---x----x-----x---x---x---x---x--x--| |--5-5-5-----7---8----12---12--12----13--13--13--12--10--7--| |-----------------------------------------------------------|
|-------------------------------|---------------|-------| |-------------------------------|---------------|-------| |--15--15--14--15--17--18-------|--7-7-7--6--5--|-------| |---x---x---x---x---x---x-------|--7-7-7--x--x--|---7---| |--13--13--12--13--15--16-------|--5-5-5--4--3--|---7---| |-------------------------------|--5-5-5--------|---5---|
Chorus Intro
Please rate this tab:
x1.0