Vicious Circle tab with lyrics by Caliban - Easy chords and tabs for guitar

Caliban – Vicious Circle tab

1ra||----------------------------------------------||x42da||----------------------------------------------||3ra||----------------------------------------------||4ta||----------------------------------------------||5ta||-------6p5------6p5-4h5-------6p5-4-4-4-1-1-1-||6ta||-0-0-0----0-0-0---------0-0-0-----------------||
||-------------||x2||----------||||-------------|| ||----------||||-8-10-11-10--|| ||-8-13--10-||||-------------|| ||-------8--||||-6-8--9--8---|| ||-6-11--8--||||-------------|| ||----------||
||----------------------------------------------||x2||----------------------------------------------||||----------------------------------------------||||----------------------------------------------||||-------6p5------6p5-4h5-------5h7-4-4-4-1-1-1-||||-0-0-0----0-0-0---------0-0-0-----------------||
||-----||xXx2 ||-------------||x4||-----|| ||-------------||||-----|| ||-------8-9-7-||||0-0-0|| ||-0-0-0-------||||0-0-0|| ||-0-0-0-6-7-5-||||0-0-0|| ||-0-0-0-------||
||----------------||x16 ||----------------||||----------------||||1-2-3---5-4-3-4-||||1-2-3---5-4-3-4-||||1-2-3---5-4-3-4-||
||-------------||x2||----------||||-------------|| ||----------||||-8-10-11-10--|| ||-8-13--10-||||-------------|| ||-------8--||||-6-8--9--8---|| ||-6-11--8--||||-------------|| ||-------8--||
||----------------------------------------------||x4||----------------------------------------------||||----------------------------------------------||||----------------------------------------------||||-------6p5------6p5-4h5-------5h7-4-4-4-1-1-1-||||-0-0-0----0-0-0---------0-0-0-----------------||
||-------------||x4 ||-------------||||-------8-9-7-||||-0-0-0-------||||-0-0-0-6-7-5-||||-0-0-0-------||
||---------------||||---------------|| ||-8-10-11-10--10|| ||-------------8-|| ||-6-8--9--8---8-|| ||-------------8-||
||------||||------|| ||--10-9|| ||--8--9|| ||--8--9|| ||--8--7||
Please rate this tab:
x1.0