Calixa Lavallee - O Canada tab

   O           Ca-------na--da----------      Our    

   1  &  2  &  3  &  4  &    1  &  2  &  3  &  4  &

||-0-----------3----------|--0-----------------3-----||||-1-----------3----------|--1-----------------3-----||||-0-----------0----------|--2-----------------0-----||||-2-----------0----------|--2-----------------0-----||||-3-----------2----------|--0-----------------2-----||||-------------3----------|--------------------3-----||
|| || || 1 & 2 & 3 & 4 & 1 & 2 & 3 & 4 & ||
||------------------------|--------------------------||||------------------------|--------------------------||||-9-----------12------12-|--------------------------||||------------------------|--10----------------12----||||------------------------|--------------------------||||------------------------|--------------------------||
home and na----tive land 1 & 2 & 3 & 4 & 1 & 2 & 3 & 4 &
||-0-----1-----3-----5----|-3------------------------||||-1-----3-----3-----3----|-3------------------------||||-0-----2-----0-----2----|-0------------------------||||-2-----0-----0-----0----|-0------------------------||||-3-----------2----------|-2------------------------||||-------------3----------|-3------------------------||
|| || || 1 & 2 & 3 & 4 & 1 & 2 & 3 & 4 & ||
||------------------------|--------------------------||||-------------------10---|--------------------------||||-9----10-----12---------|--------------------------||||------------------------|-12-----------------------||||------------------------|--------------------------||||------------------------|--------------------------||
True pa----triot love in 1 & 2 & 3 & 4 & 1 & 2 & 3 & 4 &
||-0-----------2----------|-3------------------------||||-1-----------3----------|-3------------------------||||-0-----------2----------|-0------------------------||||-2-----------0----------|-0------------------------||||-3----------------------|-2------------------------||||------------------------|-3------------------------||
|| || || 1 & 2 & 3 & 4 & 1 & 2 & 3 & 4 & ||
||------------------------|--------------------------||||------------------------|------------------10------||||-9-----------11------11-|-12-----------------------||||------------------------|--------------------------||||------------------------|--------------------------||||------------------------|--------------------------||
all thy sons com--mand with 1 & 2 & 3 & 4 & 1 & 2 & 3 & 4 &
||-3----------------------|-3------------------------||||-3-----------3----------|-3------------------------||||-0-----------2----------|-0------------------------||||-0-----------0----------|-0------------------------||||-2----------------------|-2------------------------||||-3----------------------|-3------------------------||
|| || || 1 & 2 & 3 & 4 & 1 & 2 & 3 & 4 & ||
||------------------------|--------------------------||||-12----12----10----10---|--------------------------||||------------------------|-12-------------------9---||||------------------------|-------------------12-----||||------------------------|--------------------------||||------------------------|--------------------------||
glow--------ing hearts we-- see the rise the-- 1 & 2 & 3 & 4 & 1 & 2 & 3 & 4 &
||-1---------------3-------------|-0---------------0--------------||||-3---------------3-------------|-1---------------1--------------||||-2---------------0-------------|-0---------------2--------------||||-0---------------0-------------|-2---------------2--------------||||-----------------2-------------|-3---------------0--------------||||-----------------3-------------|--------------------------------||
|| || || 1 & 2 & 3 & 4 & 1 & 2 & 3 & 4 & ||
||-------------------------------|--------------------------------||||-------------------------------|--------------------------------||||-10----------9-----------9--10-|-12----------10--9-------10--12-||||-----------------12------------|--------------------------------||||-------------------------------|--------------------------------||||-------------------------------|--------------------------------||
True North strong and free >From 1 & 2 & 3 & 4 & 1 & 2 & 3 & 4 &
||-5-------3-------1-------0-----|-3--------------(3)-------------||||-3-------3-------3-------1-----|-3--------------(3)-------------||||-2-------0-------2-------0-----|-0--------------(0)-------------||||-0-------0-------0-------2-----|-0--------------(0)-------------||||---------2---------------3-----|-2--------------(2)-------------||||---------3---------------------|-3--------------(3)-------------||
|| || || 1 & 2 & 3 & 4 & 1 & 2 & 3 & 4 & ||
||-------------------------------|--------------------------------||||-10----------------------------|--------------------------------||||--------12------10-------9-----|-----------------------------9--||||-------------------------------|-12----------------------12-----||||-------------------------------|--------------------------------||||-------------------------------|--------------------------------||
Far and wide oh Ca----------na--da we 1 & 2 & 3 & 4 & 1 & 2 & 3 & 4 &
||-1---------------3-------------|-0---------------0--------------||||-3---------------3-------------|-1---------------1--------------||||-2---------------0-------------|-0---------------2--------------||||-0---------------0-------------|-2---------------2--------------||||-----------------2-------------|-3---------------0--------------||||-----------------3-------------|--------------------------------||
|| || || 1 & 2 & 3 & 4 & 1 & 2 & 3 & 4 & ||
||-------------------------------|--------------------------------||||-------------------------------|--------------------------------||||-10----------9-----------9--10-|-12----------10--9------------9-||||----------------12-------------|--------------------------------||||-------------------------------|--------------------------------||||-------------------------------|--------------------------------||
stand on guard for Thee------------------------- 1 & 2 & 3 & 4 & 1 & 2 & 3 & 4 &
||-3---------------2-------------|-3------------------------------||||-3---------------3-------------|-3------------------------------||||-0---------------2-------------|-0------------------------------||||-0---------------0-------------|-0------------------------------||||-2-----------------------------|-2------------------------------||||-3-----------------------------|-3------------------------------||
|| || || 1 & 2 & 3 & 4 & 1 & 2 & 3 & 4 & ||
||-------------------------------|--------------------------------||||-------------------------------|--------------------------------||||--------12-------12-11---9--11-|-12-------------------------------||||-12----------------------------|--------------------------------||||-------------------------------|--------------------------------||||-------------------------------|--------------------------------||
God keep our land 1 & 2 & 3 & 4 & 1 & 2 & 3 & 4 &
||-0---------------3-------------|-0------------------------------||||-1---------------3-------------|-1------------------------------||||-0---------------0-------------|-2------------------------------||||-2---------------0-------------|-2------------------------------||||-3---------------2-------------|-0------------------------------||||-----------------3-------------|--------------------------------||
|| || || 1 & 2 & 3 & 4 & 1 & 2 & 3 & 4 & ||
||-------------------------------|--------------------------------||||-------------------------------|--------------------------------||||-9--------------12----------12-|--------------------------------||||-------------------------------|-10-----------------------------||||-------------------------------|--------------------------------||||-------------------------------|--------------------------------||
Glo ri- ous and free 1 & 2 & 3 & 4 & 1 & 2 & 3 & 4 &
||-1-----------------------------|-3------------------------------||||-3-----------------------------|-3------------------------------||||-2-----------------------------|-0------------------------------||||-0-----------------------------|-0------------------------------||||-------------------------------|-2------------------------------||||-------------------------------|-3------------------------------||
|| || || 1 & 2 & 3 & 4 & 1 & 2 & 3 & 4 & ||
||-------------------------------|--------------------------------||||-----------------10---------10-|--------------------------------||||-10----------10----------------|--------------------------------||||-------------------------------|-12-----------------------------||||-------------------------------|--------------------------------||||-------------------------------|--------------------------------||
O Ca na da We stand on 1 & 2 & 3 & 4 & 1 & 2 & 3 & 4 &
||-0---------------0-------------|-1---------------0-------3------||||-1---------------0-------------|-1---------------1-------3------||||-0---------------1-------------|-2---------------0-------0------||||-2---------------2-------------|-3---------------2-------0------||||-3---------------2-------------|-----------------3-------2------||||-----------------0-------------|-------------------------3------||
|| || || 1 & 2 & 3 & 4 & 1 & 2 & 3 & 4 & ||
||-------------------------------|--------------------------------||||-----------------9-----------9-|-10-----------------------------||||-12----------------------------|---------10------9--------------||||-------------------------------|-------------------------12-----||||-------------------------------|--------------------------------||||-------------------------------|--------------------------------||
guard for thee 1 & 2 & 3 & 4 & 1 & 2 & 3 & 4 &
||-0---------------3-------------|-0------------------------------||||-1---------------3-------------|-1------------------------------||||-2---------------0-------------|-0------------------------------||||-2---------------0-------------|-2------------------------------||||-0---------------2-------------|-3------------------------------||||-----------------3-------------|--------------------------------||
|| || || 1 & 2 & 3 & 4 & ||
||-------------------------------|--------------------------------||||-------------------------------|--------------------------------||||-------------------------------|-9------------------------------||||-10--------------12------------|--------------------------------||||-------------------------------|--------------------------------||||-------------------------------|--------------------------------||
O Ca na da We stand on 1 & 2 & 3 & 4 & 1 & 2 & 3 & 4 &
||-0---------------1-------------|-0-------1-------0-------1------||||-1---------------1-------------|-1-------1-------1-------3------||||-0---------------2-------------|-2-------2-------0-------2------||||-2---------------3-------------|-2-------3-------2-------0------||||-3-----------------------------|-0---------------3--------------||||-------------------------------|--------------------------------||
|| || || 1 & 2 & 3 & 4 & 1 & 2 & 3 & 4 & ||
||-------------------------------|--------------------------------||||-----------------13---------13-|-10-----------------------------||||-12----------------------------|--------10-------9--------------||||-------------------------------|-------------------------12-----||||-------------------------------|--------------------------------||||-------------------------------|--------------------------------||
guard for Thee 1 & 2 & 3 & 4 & 1 & 2 & 3 & 4 &
||-0---------------3-------------|-0------------------------------||||-1---------------3-------------|-1------------------------------||||-0---------------0-------------|-0------------------------------||||-2---------------0-------------|-2------------------------------||||-3---------------2-------------|-3------------------------------||||-----------------3-------------|--------------------------------||
|| || || 1 & 2 & 3 & 4 & 1 & 2 & 3 & 4 & ||
||-------------------------------|--------------------------------||||----------------12-------------|-13-----------------------------||||-12----------------------------|--------------------------------||||-------------------------------|--------------------------------||||-------------------------------|--------------------------------||||-------------------------------|--------------------------------||
Tap to rate this tab
 
# A B C D E F G H I J K L M N O P Q R S T U V W X Y Z