Arrow tab with lyrics by Candlebox - Easy chords and tabs for guitar

Candlebox – Arrow tab

( INTRO )------------------------------------------------------------------------------------2--2--------------------------2--2-----4--4--4-2--4--4-4-4-0--0-----4--4--4-2--4--4-4-4---------
AFTER THE FOURTH THIME YOU PLAY THAT IT GOES TO RIFF 2 PLAY THIS 4 TIMES ALSORIFF 2---------------------------------------------------------------2-------------------------4-2--4-2---2-----------4-4-4-0------4---4-3-2-0---4-4-4----------------------THE MAIN RYTHM STARTS AS THE VOCALS STARTPLAY IT TWICE 1) SHE DON'T HAVE A NAME SHE DON'T HAVE A FACE NEVER HAD MUCH OF ANY THINGYES2) SHE DON'T HAVE THE LINE SHE DONT HAVE THE TIME NEVER HAD MUCH OF ANYTHING
---------------------------------------------------------------------------------------------------------------------------------------- 4-4--------------------------------------- 2------------4-4-------------2-2----------------------- 2------------2-2-------------2-2------------4-4-4-4-4--2--4-4-4-4-4-----4-4-4-4-4--2-2--4-4-4-4-
I SEE YOU AND I FALL FROM GRACEEEEEEEEEYES I SEE YOU I POINT TO YOU WASTE ME ----------------------------------------------------------------------------------------------------------- 2-----4-4-------------- 4----------------------------- 2-----2-2------------ 2-2------------4-4-4------------2-----2-2------------ 2-2------------2-2-2--4---4---4-0--4------4-4-4-4-4--2-2--4-4-4-4-4--------4---4---4---
EEEEEEEEEEEEE YOU WANT ME OH MY MY-----------------------------------------------------------------------4--2----2--------------------4----4--3--2------------------------2-
NOW YOU PLAY THIS PART (INTRO) 4 TIMES------------------------------------------------------------------------------------2--2--------------------------2--2-----4--4--4-2--4--4-4-4-0--0-----4--4--4-2--4--4-4-4---------
THEN PLAY THIS PART ONCE---------------------------------------------------------------2-------------------------4-2--4-2---2-----------4-4-4-0------4---4-3-2-0---4-4-4----------------------NEXT GO BACK AND PLAY THIS TWICE ( MAIN RIFF)1) SHE DON'T HAVE A NAME SHE DON'T HAVE A FACE NEVER HAD MUCH OF ANY THINGYES2) SHE DON'T HAVE THE LINE SHE DONT HAVE THE TIME NEVER HAD MUCH OF ANYTHING
---------------------------------------------------------------------------------------------------------------------------------------- 4-4--------------------------------------- 2------------4-4-------------2-2----------------------- 2------------2-2-------------2-2------------4-4-4-4-4--2--4-4-4-4-4-----4-4-4-4-4--2-2--4-4-4-4-
I SEE YOU AND I FALL FROM GRACEEEEEEEEEYES I SEE YOU I POINT TO YOU WASTE ME ----------------------------------------------------------------------------------------------------------- 2-----4-4-------------- 4----------------------------- 2-----2-2------------ 2-2------------4-4-4------------2-----2-2------------ 2-2------------2-2-2--4---4---4-0--4------4-4-4-4-4--2-2--4-4-4-4-4--------4---4---4---
EEEEEEEEEEEEE YOU WANT ME ON MY BAAAAAAAAAAA-----------------------------------------------------------------------4--2----2--------------------4----4--3--2------------------------2-
THE SECOND TIME YOU PLAY THE ABOVE RIFF END IT WITHAAAAAAABBBBYYYYY YEAH AND I'M LOOSING YOU AGAIN NOW------------------------------------------------------------------------------------------------------------ 2-0-2-----2-----2--------------------------------------2-0-2-----2-----2---------------2-2--------------------2-0-4-----4-----0---------------0-0-0---------- 4--4-4-0--------------------------------------4--4--2--4--4-4----NOW THIS PART ONCE NO
NO NO NO FEEL YOU--------------------------------------------------------------------------------------------------------------------------------------2--2------4----------------4-4-------------------------2--2------4----------------4-4----4--4--4-2--4--4-4-4-0--0------2----------------2-2----4--4--4-2--4--4-4-4-----------------------------------
SLIP RIGH T DOWN NOW--------------------------------------------------------2---2---2---2---2--2--2---2---2---2---2---2--2--2---0---0---2---0---0--0--0----------------------------
PLAY THIS THREE TIMES1) SOME THINGS ON MY MIND2) I CANT FIND THE TIME3) SOME ONE'S GOT ARROW------------------------------------------------------------------------ 2------------------------------ 2--4-2---2-----------4-4----4-0------4---4-3-2-0---4-4----4----------------------
FOLLOWED BY THIS PART ONCE-------------------------------------------------------------------------------2---4-4--2----2--4--------------4-2-----------4-------2-0---4-4---4-0-------------------------4-4---4--------------------------
THIS PART THREE MORE TIMES1) SOME THINGS ON MY MIND I WANT TO TEL YOU BUT THAT2) I CANT FIND THE TIME I WANT TO FEEL IT3) SOME ONE'S GOT ARROW ---------------------------------------------------------------------------2-------------------------------2--4-2---2-----------4-4-----4-0------4---4-3-2-0---4-4-----4----------------------
END THIS PART WITH --------------- NOW HOLD THE LAST CHORD AND YOU CAN -----------2--- USE EITHER A HARMONICS PITCH SHIFT -----------2-- PEDDLE A FLANGER PEDDLE OR A WAH -----------2--- WAH PEDDLE TO MAKE THE SOUNG EFFECT -4--4----4-0-- OF THE PITCH SHIFT DERRING THE LONG -4--4----4---- BREAK THAT LEADS TO THE SOLO
GUITAR SOLO ITS TRICKY BUT ITS RIGHT AND YOU'LL GET ITWITH PRACTICE-------------------------------------4-4-4-4-4-4-4-4-4-4-4-4-4-4-4-4---4-4-4-4-4-4-4-4-4-4-4-4-4-4-4-4---2-2-2-2-2-2-2-2-2-2-2-2-2-2-2-2---2-2-2-2-2-2-2-2-2-2-2-2-2-2-2-2---2----- 2-----2----- 2-----2---------
bend both strings and hold while viberating without --9b-- 9---9---9----9---9--9--9--9----9----9--9--9--9--12b- 12--12--12--12--12-12-12-12-- 12---12-12-12-12----------------------------------------------------------------------------------------------------------------------------------------------------------------------------------------------------------------------------
-9--9--9--9---- 9---9--9--9--9--9--9--9--9--9--9--9--912-12-12-12---12- 12-12-12-12-12-12-12-12-12-12-1212--------------------------------------------------------------------------------------------------------------------------------------------------------------------------------------------------------------------------------
release bend-9\-----------------------------------------------------12\-----0--2~~2-2-4b1/2 4~~--x2~~4b14b1~~2--2--------------0--2~~2-2-4b---4~~--x2~~4b-4b-~~-4b1-4b1------/2\--0--2~~2-2-------------------------------------/2\--------------------------------------------------------------------------------------------------
---------------------------------------------------------------------------------------------x-------------4b1-(4)b1-(4)b1-p-2--4p2---2-2~~(2)-------4--4~/14-x-------------------4-----4---------4p2------------- x----------------------------------------------------------------------------------------------------------
------------------------------------------------------------17b1~~~~ ---------------------15-------------------------------x16b1(16)p14--------16--------14-----------------------------------16~~~~~-----14h16--16~~~16\12----------------------------------------------------------------------------------------------------------------
--------9-------9-------9--------9------9------9------9---12b1----12b1----12b1----12b1----12b1----12b1----12b1--x-------------------------------------------------------x---------------------------------------------------------------------------------------------------------------------------------------------------------------------
-12p9-9-9-12p9-12p9-9-9--------------------------------------------------------9-12p9-12p9--------------------------------------------------------11p9-11p9h11p9b1/4------------------------------------------------------------------------------------------------------------------------------------------------------------------------
----------------------------------------------------------------------2---------------4b1----4~~~2--2~~---------------------2---------------4b-----4~~~2--2~~------------11----4-------4p2-----4---------------4----4p2--2------------------------4----------------------------4--------------------------------------------------------
----------------------------------------------------------4-4b1--4~~2----2---------4-4b1---4~~2-------------4---4-4b1--4~~2----2---------4-4b1---4~~2--x-4b1--4p2-4----------------4----4p2---2----------------------------------------------------4---------------------------------------------------------------------------------------
----------------------4--------------------4p2--2-------------------4--4p2--2-------------------4--4-3-0----------------------
NOW THIS PART ONCE yeah ee yeah yeah yeah feel i'm loosing you again now--------------------------------------------------------------------------------------------------------------------------------------2--2------4----------------4-4-------------------------2--2------4----------------4-4----4--4--4-2--4--4-4-4-0--0------2----------------2-2----4--4--4-2--4--4-4-4-----------------------------------
--------------------------------------------------------2---2---2---2---2--2--2---2---2---2---2---2--2--2---0---0---2---0---0--0--0----------------------------
------------------------------------------------------------------------------------2--2--------------------------2--2-----4--4--4-2--4--4-4-4-0--0-----4--4--4-2--4--4-4-4---------
PLAY THIS THREE TIMES 1) SOME THINGS ON MY MIND 2) I CANT FIND THE TIME 3) SOME ONE'S GOT ARROW ------------------------------- -------------------------------
---------- 2------------------------------ 2--4-2---2-----------4-4----4-0------4---4-3-2-0---4-4----4----------------------
FOLLOWED BY THIS PART ONCE-------------------------------------------------------------------------------2---4-4--2----2--4--------------4-2-----------4-------2-0---4-4---4-0-------------------------4-4---4--------------------------
THIS PART THREE MORE TIMES1) SOME THINGS ON MY MIND I WANT TO TEL YOU BUT THAT2) I CANT FIND THE TIME I WANT TO FEEL IT3) SOME ONE'S GOT ARROW oh no-------------------------------------------------------------------------------------------2---------------------------------------2--4-2---2------------ 4---4--4-4-----4-0------4---4-3-2-0----4---4--4-4-----4------------------------4---4-
Please rate this tab:
x1.0