Untitled tab with lyrics by Carcassi Matteo - Easy chords and tabs for guitar

Carcassi Matteo – Untitled tab

E|--------------------------------------1------0------------------B|----------------------------------------------------3-----0-----G|--2-2-2---2-2-2---2-2-2-----2-2-2--2-2----2-2---1--1--2--2---D|-----------------3--------2--------0----------------------------A|0-------3--------------------------------3------2-----0--------E|----------------------------------------------------------------
|-------------------------------------------------------0-----|---0-----0-----0------0------1--------1-------0------------|--2-2--2--2--2--2---2--2---2--2----2---2---2---2---1---1----|0----1-----2------3-------2---------------2-----------------|------------------------------------------------------------|---------------------------------0----------------0---------
|------------------------------------1-------0------------------|----------------------------------------------------3-------0--|--2-2-2--2-2-2--2-2-2---2-2-2---2---2---2---2---1---1---2--2--|---------------3-------2-------0--------------------------------|0------3-------------------------------3-------2--------0--------|----------------------------------------------------------------
|-----------------------------0-------0-1-0----0-5--||-----0-----0-----1-------0---------1-------4-------||---2--2--2--2--2--2---1----------2-----------------||0------1-----2--------------------------------------| |-------------------------------0--------------------||--------------------0-------------------------------|
2nd part of song|-------------------------------------------0------1------2---|--1-1-1--1-1-1--1-1-1--1-1-1-----3-----2---2---3--3--1---1-|---------------2------0---------2---2------------------------|-------2----------------------3-------2-------0-------0------|3------------------------------------------------------------|-------------------------------------------------------------
|----3-------3------2-------1-------0-------------------------0---|--0--0---------------------------------------3-------1------------|0--------0---0---0--0---0---0---0----0----0---0---0---0---0---0-|------------------------------------------0------2----------------|--------------0-------2--------3-------------------------3-------|------3-----------------------------------------------------------
|---------------------------------------------------------0-0-0---|----------2-2-2--3-3-3----------0-0-0--4-4-4---3-3-3-----------|--2-2-2-----------------5-5-5-------------------------1----------|3-------1------0------4-------0-------3-------2------------------|------------------------------------------------------------------|------------------------------------------------------------------
chord|------------------------------------0-1-0-0-0-(3h4) -0-0-0-7-0-0-0-|--1-1-1--1-1-1--0-0-0------------0---------------------------------|2----------------------2-2-2----1-----------------------------------|--------------0-------1-------2-------------------------------------|-------0------------------------------------------------------------|-----------------------------------------------------------0--------
|1-0--0---0--0---0--0-----0-1-0-0-0-(3h4)-0-0-0-7-0-0-0--|---4---3--1---0---------0---------------------------------|-----------------2----1-----------------------------------|--------------------2-------------------------------------|----------------------------------------------------------|-------------------------------------------------0----------
|1-0---0---0-0-0--0------0---0--0--0--0--0--0-|----4---3--1-0---------------------------------|----------------2---1--------------------------|----------------------3---2--1--2--0--3--2---|-----------------------------------------------|-----------------------------------------------
|----------------------------------1------0-----------------|------------------------------------------------3------0---|--2-2-2--2-2-2--2-2-2--2-2-2--2---2--2---2--1--1---2--2--|---------------3------2-------0----------------------------|0------3-----------------------------3------2------0-------|------------------------------------------------------------
|-------------------------------------0-----1-------0---|------------------2-----2-----3------------------------|----3-----3-----0--0--0--0--2--2--2--2--2--2---2----2|--3--3--3--3--2-----2-----3------------0-----2--------|5-----5-------------------------4----------------------|-------------------------------------------------------
|----------------------0-0-0---------------------------- |---4-4-4---4-4-4-------------3-3-3---1-1-1---0-0-0--- |----------2--------1----------------2------------------ |4--------------------------2----------------0---------- |------------------------------------------------------- |--------------------------------------------------------
|------------------------------0---------0-1-0---0-5---||-----0------0------1--------0---------1-------4-------||---2--2---2--2---2--2----1----------2-----------------||0-------1------2-------------------------------------- | |-----------------------------------0-------------------||-----------------------0-------------------------------|
Please rate this tab:
x1.0