Carlos Santana - Bonus Track tab

#-----------------------------PLEASE NOTE-------------------------------------#
#This OLGA file is the author's own work and represents their interpretation  #
#of the song. You may only use this file for private study, scholarship, or   #
#research. Remember to view this file in Courier, or some other monospaced    #
#font. See http://www.olga.net/faq/ for more information.                     #
#-----------------------------------------------------------------------------#

Date: Wed, 26 Jul 2000 17:23:28 -0400
From: jordan L 
Subject: s/santana/bonus_track.tab

Artist: Santana
Title: Bonus Track
Album: Supernatural
Transcribed by: jordanlockert@yahoo.com

tablature explanation:
h=hammer-on
p=pull-off
^=bend full
r=release bend
/////// indicates rapid picking


Intro: classical guitar|------------------------------------------------------||------------------------------------------------------||------------------------------------------------------||---0-2-3---------2-2-2-----------2-3-2-2h3p2----------||-0-----------0-------------0-4-5------------4h5-------||---------------4--------------------------------------|
|----------------------------------------------------------||----------------------------------------------------------||----------------------------------------------------------||-0-2-3---2-3-2-3-5-2h3p2-2----0-2-3---2-3-2-3-5-2h3p2-2---||------------------------5----------------------------5----||----------------------------------------------------------|
|-----------------------------------0-3-0---3-3-1-1--1-------||-------------------------------3-2-------2----------3-------||-----------------2-3---2-3-2-3----------------------2-------||-2-3-5---4-5-4-5--------------------------------------------||------------------------------------------------------------||------------------------------------------------------------|
|-----5-5-----5-5-----------||---6-----6-------6---------||-7---------7-------7-7-----||---------------------------||---------------------------||---------------------------|
|----5-8-6--5-6--5h6p5-8-------------------------||-6-8-----------------8--8-8-8-6-8-6-5-6-5-------||------------------------------------------7-7---||------------------------------------------------||------------------------------------------------||------------------------------------------------|
|-----------||-----------||---7-9-10--||-7---------||-----------||-----------|
|--------------------------------||--------------------------------||----9-10-12-10-9-10-12--10-12---||-12-----p--p--p-h--h------------||-12-----------------------------||--------------------------------|
|----------||-10-8-10--||----------||----------||----------||----------|
|-----------------------10------------------------------------------||-10-10-10-11-13-13--13----13-11-10-11-10h11p10--10-------10--------||----------------------------------------------12---12-12----12-12--||-------------------------------------------------------------------||-------------------------------------------------------------------||-------------------------------------------------------------------|
|------------------------10---|----8---------8-8-10-10------|-10---10-9-10----------------|-----------------------------|-----------------------------|-----------------------------
-10///12///13//////15//////17/////////18///17////15//13//---|------------------------------------------------------------|------------------------------------------------------------|------------------------------------------------------------|------------------------------------------------------------|------------------------------------------------------------|
Electric|------------------------------------------------------------10-----|*-10-10----10----------10-13-10-----10-10----10----------10---10---|--10-10----10-12-10-12-10-----------10-10----10-12-10-12-10--------|-------------------------------------------------------------------|*------------------------------------------------------------------|-------------------------------------------------------------------
-------------------------------10-------|-10-10----10----------10-11-13---10----*|-10-10----10-12-10-12-10-----------12---|----------------------------------------|---------------------------------------*|----------------------------------------|
im not sure if this is played on piano or guitar or somethiing else, but here it is anyway|--------------------------------------5------||---5-6----------6--------8-6--------8---6----||-7-------------------------------------------||--------------7------------------------------||---------------------------------------------||---------------------------------------------|
|-----5--------6-5------------5------555-6-5-----5-----||-6-8---------------------6-8----------------6----8----||----------------------------------------------7-------||------------------------------------------------------||------------------------------------------------------||------------------------------------------------------|
back to guitar|--------------------------------------||--------8---10---8-8-6---8-8-8^r------||-7-10-7---7----7-------7---7----10p7--||--------------------------------------||--------------------------------------||--------------------------------------|
|-----------13-------------------13--||-/15-15-15-----/-15-15-15-15-15-----||------------------------------------||------------------------------------||------------------------------------||------------------------------------|
|-13^///////////13^-13^--13^r10---||---------------------------------||---------------------------------||---------------------------------||---------------------------------||---------------------------------|
|-18p17-17-17--18p17-17-17-------------||--------------------------18-18\------||--------------------------------------||--------------------------------------||--------------------------------------||--------------------------------------|
|-----15--17-15-17-----------18-17---------------15--17-15-17---|-18-----------------------------------------18-----------------|---------------------------------------------------------------|---------------------------------------------------------------|---------------------------------------------------------------|---------------------------------------------------------------
-17-17-18-17-------17-15-------13-13-13-13-13----------|-------------18-15----------------------------15\------|-------------------------------------------------------|-------------------------------------------------------|-------------------------------------------------------|-------------------------------------------------------|
freedomfreedomfreedom|-10----------------------||-10-13-10----------------||---------/12-12-10-12----||-------------------------||-------------------------||-------------------------|
...get up|---------||---6-----||-7---7---||---------||---------||---------|
...stand up|-------------||---8^r6------||-7------7----||-------------||-------------||-------------|
...celebrate|--------------------------------5------||-6-------10---8---6---8^r6--6-8--6-----||---7-7-7----7---7---7-----7-------7----||---------------------------------------||---------------------------------------||---------------------------------------|
freedom|-------------13----||-13h15-15-15-------||-------------------||-------------------||-------------------||-------------------|
...about freedom|-10--------------------------------------||-10-13-10-------------10-----------------||---------/12-12-10-12--------------------||----------------------------12-12p10-----||------------------------------------12---||-----------------------------------------|
...redemption|----------------------------10p8-----------------||--------8---10---8--------8-----10p8----8--------||-7-10-7---7----7---7-10-7-----------10p7-10p7----||-------------------------------------------------||-------------------------------------------------||-------------------------------------------------|
freedom|--------------13--||-13^-------/15----||------------------||------------------||------------------||------------------|
...don't you want freedom|-15^------13-15----13-13-h15---||----------------15-------------||-------------------------------||-------------------------------||-------------------------------||-------------------------------|
...liberation|-18-17-18-17-18-17-18-17-18-17-18-17---17---------------------||---p--h--p--h--p--h--p--h--p--h--p-----18-18-18-18------------||------------------------------------------17-17-17-19-19-19\--||--------------------------------------------------------------||--------------------------------------------------------------||--------------------------------------------------------------|
freedom|--------||-13^----||--------||--------||--------||--------|
...don't you want freedom|-13^--13^--13^-13^-13^r10--10101010-13---||-------------------------13--------------||-----------------------------------------||-----------------------------------------||-----------------------------------------||-----------------------------------------|
...celebration|-10-------10-------------------------------||-10-13-10----13-10-13-13p10----------------||---------------------------12-12ph12-------||------------------------------------/12----||-------------------------------------------||-------------------------------------------|
...lets celebrate|--------------------||-------------6------||---5-55-55-----7----||-7---------7--------||--------------------||--------------------|
...lets celebrate|-10-------10---------------------------------||-10-13-10----13-10h13p10---------------------||------------------------12p10-12p10--10h12---||-----------------------------------12--------||---------------------------------------------||---------------------------------------------|
...gonna celebrate|-10-----------------------||----8^r^r^r^r---6h8-------||-------------------7------||--------------------------||--------------------------||--------------------------|
...celebrate|-------------------------------||-8^r^r^r---8^r6-8^r6-----------||---------------7----7-5-7------||-------------------------------||-------------------------------||-------------------------------|
Oh yeah|---5-------5-------------------||-----8---6---8---6p5----6------||-7------------------7-7--------||-------------------------------||-------------------------------||-------------------------------|
|-10-----------------------------||---10------10-------------------||-----12--10--12--10p9---10------||----------------------12--12----||--------------------------------||--------------------------------|
|-10-------------------------------10h13p10---------||---10------10----------------10h13--------13p10----||-----12--10--12-----10--10h12----------------------||------------------12--12---------------------------||------------------------------not-sure-about-this--||---------------------------------------------------|
|---------------------------------------10----------------------------|-----6---8---8^--8--6-8-8p6----6---8--------8p6-8-8p6----6---8---10--|-7-------------------------7-------------------7-----7---------------|---------------------------------------------------------------------|---------------------------------------------------------------------|---------------------------------------------------------------------
-------------------------------10/////----------------|--10h11p10h11p10-10/////11/////-----------------------|--------------------------------------9/////10////----|------------------------------------------------------|------------------------------------------------------|------------------------------------------------------|
|-17-----18-15h17-15----15-17-15-17-----18-15h17-15----15-17-15-17---|--------------------18-----------------------------18---------------|--------------------------------------------------------------------|--------------------------------------------------------------------|--------------------------------------------------------------------|--------------------------------------------------------------------
--18-15h17-15---15-17--17------------20^--17-20^--17-20^--17-20^-----------------18---------18-18-18-18--------------------------------------------------------19-19-19-19----------------------------------------------------------------------------------------------------------------------------------------------------------------------------------------------------------------------------------------now there's some weird effects and noise that play as it fades out
Tap to rate this tab
 
# A B C D E F G H I J K L M N O P Q R S T U V W X Y Z