Carlos Santana - Bella tab

Santana
Bella
thelordofguitar

--------------------------------------------------------------|----------------------------------8-6-5-----------------------|--------------7/9--7--7~~~----7----------7/9--(9)7/9--(9)~~~--|-10-9-7-9-----------------------------------------------------|--------------------------------------------------------------|--------------------------------------------------------------|
------------------------------------------------------------|-----------------------------------------8-6-5--------------|-5-4----4-5--7/9~~~(9)---7~~~~(7)----7--------7/9--75--7----|------7-----------------------------------------------------|------------------------------------------------------------|------------------------------------------------------------|
--------------------------8~~~~~----10~~~~~----10--8--7--8~~~~~-|------8--8h10~~~(10)--------------------------------------------|-7/9------------------------------------------------------------|----------------------------------------------------------------|----------------------------------------------------------------|----------------------------------------------------------------|
-----------------------------------------------------------|-----------------------------------------------------------|-5--4-----4-5--7/9h10---7~~~~(7)----5h7---5--4--5~~~~(5)---|--------7--------------------------------------------------|-----------------------------------------------------------|-----------------------------------------------------------|
-12h13p12-------12h13p12--------12h13p12-------12h13p12--------|----------131313---------131313----------131313---------131313-|---------------------------------------------------------------|---------------------------------------------------------------|---------------------------------------------------------------|---------------------------------------------------------------|
12h13p12---------12h13p12-------12h13p12-------12h13p13-----|----------131313----------131313---------13-13----------13--|------------------------------------------------------------|------------------------------------------------------------|------------------------------------------------------------|------------------------------------------------------------|
---------------------------------------------------------------|------13h15--13------------------------------------------------|-/14--------------14-14--------------------------12--14--12h14-|-------------------------14--12h14~~~(14)---14-----------------|---------------------------------------------------------------|---------------------------------------------------------------|
--------------------------------------------------------------|--------------------------------------------------------------|14------------------------------------------------------------|-----12--12--12h14--14--14~~~(14)-----------------------------|----------------------------------------15--15h17-------------|------------------------------------------------------15h17---|
-5-5----8----5-5----8----10----12------------------------------|-5-5----8----5-5----8-----x-----x-----13p12--------------------|--------------------------7-----9---------------12--14~~~(14)--|---------------------------------------------------------------|---------------------------------------------------------------|---------------------------------------------------------------|
--------------------------------------------15-13-12-13-12-13-|-13p12-------------------15b(17)~~r(15)-----------------------|---------12--14~~~(14)----------------------------------------|--------------------------------------------------------------|--------------------------------------------------------------|--------------------------------------------------------------|
121312-10-12-10-10-8-10-8-8-7-8-7--7-7----7----7------------------|--------------------------------------------10---10--10--10-10~~~-|------------------------------------------------------------------|------------------------------------------------------------------|------------------------------------------------------------------|------------------------------------------------------------------|
------------------12----------------------------------------|-----------12--13-----13~~~~----13/15~~~---13b(15)r(13)--13-|-14----14---------------------------------------------------|----14------------------------------------------------------|------------------------------------------------------------|------------------------------------------------------------|
------------------------8b(10)~~~r(8)--8-7-8-7-5---5---5---------|-14--------------------------------------------------8---8---8-5-|----151412------12/14--------------------------------------------|-----------1512--------------------------------------------------|-----------------------------------------------------------------|-----------------------------------------------------------------|
-8-585---5------------------------------------------------------|-------8---8-5-8-8p5--------------------------------------------|-----------------------9p8--7p5----7--5-------------------------|---------------------------------7------7--5-------7-------5--7-|----------------------------------------------7--5-----5h7------|----------------------------------------------------------------|
--------/5-----------8--10---10b(12)~~~~---11p10p8--10----------|--------/5--x--x/10---------------------------------------------|-5--------------------------------------------------------------|----7-------------------------------------------------------/12-|----------------------------------------------------------------|----------------------------------------------------------------|
------------------------------------------------------------------|------------------------------------------------------------------|------------------------------------------------------------------|-12--12--12--12--12--12--(12)-12--12--12--12--12--12--12--12------|------------------------------------------------------------------|------------------------------------------------------------------|
----------------------------------------------------------|----------------------------------------------------------|----------------------------------------------------------|----------------------------------------------------------|-1210---1210-----------5--7-----3----5--(5)--7-----3------|------12-----12108----------5-----5------------5------5---|
-----------------------------------------------------------------|-----------------------------------------------------------------|-----------------------------------------------------------------|-----------------------------------------------------------------|-5--7-----3-----5--(5)--7-----3-----5---7-------3------5--(5)--7-|-------5-----5-------------5-----5----------5-------5------------|
----------------------------------------------------------|--------------------------------------------------------5-|------------------------------------------------5--5h7----|----3-----5--7-----3-----5--(5)-7-----3-------------------|-5-----5--------5-----5------------5-----5----------------|----------------------------------------------------------|
-----------------------------------------------------------------|--------13--13/15---1513--13h15--13--12--13--12------------------|-12-14---------------------------------------------14-14--14p12--|-----------------------------------------------------------------|-----------------------------------------------------------------|-----------------------------------------------------------------|
---------------12--------------------------------------------|--------12--13----13~~~~---13p12-------------------13p12-----|-----14----------------------------12--14~~~~~(14)--------12-|-14----------------------------------------------------------|-------------------------------------------------------------|-------------------------------------------------------------|
-------------------------------------------------15b(17)r(15)p12-|----------15b(17)--15b(17)~~r(15)p13-----------------------------|14~~~~~-------------------------------14~~(14)~~~----------------|-----------------------------------------------------------------|-----------------------------------------------------------------|-----------------------------------------------------------------|
-15b(17)r(15)p12--17-19-20-19-17--17-19-20-19-20-17-19-20-20b(22--|------------------------------------------------------------------|------------------------------------------------------------------|------------------------------------------------------------------|------------------------------------------------------------------|------------------------------------------------------------------|
-20b(22)-20-20-20-20b(20)-20b(22)-20b(22)--20p17------------------|------------------------------------------------20p17-------------|-----------------------------------------------------19b(21)r(19--|------------------------------------------------------------------|------------------------------------------------------------------|------------------------------------------------------------------|
-----------------------------------------------------------------|----------------------------------------17171717--------17171717-|17----17-19-19b(21)--19p17h19--19b(21)-----------19b(21)---------|---19------------------------------------------------------------|-----------------------------------------------------------------|-----------------------------------------------------------------|
----------------------------------------------------------------|---------17171717---------17--------------17---------17---------|-19b(21)----------19b(21)----19b(21)r(19)----19b(21)----19b(21)-|----------------------------------------------------------------|----------------------------------------------------------------|----------------------------------------------------------------|
-----------------------------------------------------------------|-17--20--20p17-----17--------------------------------------------|-----------------19----19b(20)r(19)p17--(17)h19----12--14--12h14-|---------------------------------------------------14------------|-----------------------------------------------------------------|-----------------------------------------------------------------|
-----------------------------------------------------------------|-----------------------------------------------------------------|12h14------------------------------------------------------------|------12-12-12-14-12h14--12h14--(14)---------12------------------|---------------------------------------15--15--15---15h17-15-----|--------------------------------------------------------------17-|
Repeat this part underneath the parathes () very fast ( )-5-5---8-8---5-5--10---12---12-12-12---12--11--10---9--8--5--5---|-5-5---x-x---5-5---x----x-------------------x---x---x--x-------8-|-------5-5---------7----9----9--9--9----9---8---7---6------------|-----------------------------------------------------------------|-----------------------------------------------------------------|-----------------------------------------------------------------|
-8~~~(8)--5-----------8~~~-5-----5--8--5-------------------------|--------------8--10----------(8)----------8-10--1513--x-x-x-x----|--------------x---x------------------------------x-----x-x-x-x---|-------------10---7-----------------------------1210--x-x-x-x----|-----------------------------------------------------------------|-----------------------------------------------------------------|
--------------------------------------------------------------12--|-1513--x-13-x-13-1513-x-13-x-13--x-x-13-x-x-x-x-13-x-13--x--------|--x-----x--x-x--x--x----x--x-x--x--x-x--x-x-x-x-x--x-x--x----9----|-1210--x-10-x-10-1210-x-10-x-10--x-x-10-x-x-x-x-10-x-10-----------|------------------------------------------------------------------|------------------------------------------------------------------|
--15---17---------------------------------------------------|---x----x---------------------------------------------------|--12---14---------------------------------------------------|------------------------------------------------------------|--------------5--7----3----5--(5)--7-------3-----5--7-----3-|--------------------5----5------------5--5----5--------5----|
(repeat and fade out)------------------------------------------------|------------------------------------------------|------------------------------------------------|------------------------------------------------|------5---7-----3-----5---(5)--7----------3-----|--5----------5-----5---------------5---5-----5--|
Tap to rate this tab
 
# A B C D E F G H I J K L M N O P Q R S T U V W X Y Z