Carlos Santana - Moonflower tab

Tuning: Standard

|-------10---8-----------10-8--------------------------------||----10-------11-10----------11-10------8---------8----------||---7---------------------------------------9-10----10-9-10--||------------------------------------------------------------||------------------------------------------------------------||------------------------------------------------------------|
|-------------8--------10----------------------------------||-------10-11----11-10--------8-10-11-10-8--10----8-10-8---||-----------------------------------------------10------10-||----------------------------------------------------------||----------------------------------------------------------||----------------------------------------------------------|
|----------------------------------------------------------||---8-------8----------------------------------------------||------9-10---10---6--7------------------------------------||----------------------------------------------------------||----------------------------------------------------------||----------------------------------------------------------|
|-------10---8-----------10-8--------------------------------||----10-------11-10----------11-10------8---------8----------||---7---------------------------------------9-10----10-9-10--||------------------------------------------------------------||------------------------------------------------------------||------------------------------------------------------------|
|-------------8--------10----------------------------------||-------10-11----11-10--------8-10-11-10-8--10----8-10-8---||-----------------------------------------------10------10-||----------------------------------------------------------||----------------------------------------------------------||----------------------------------------------------------|
|----------------------------------------------------------||---8-------8----------------------------------------------||------9-10---10---6--7------------------------------------||----------------------------------------------------------||----------------------------------------------------------||----------------------------------------------------------|
|---------8-10------13-12-10-12-----8-10-8------------------||---10-11------------------------------------11-10-8--------||-----------------------------------------------------------||-----------------------------------------------------------||-----------------------------------------------------------||-----------------------------------------------------------|
|--------------------------------8--10---------------------||--------8-10-11--10------10-11----------------------------||--9-10----------------------------------------------------||----------------------------------------------------------||----------------------------------------------------------||----------------------------------------------------------|
|--15-13-12----13-15-12------------8-10-8------------------||-------------------------------10-------------------------||----------------------------------------------------------||----------------------------------------------------------||----------------------------------------------------------||----------------------------------------------------------|
|----------------------------------------------------------||--8----------------8--------------------------------------||----10-9------9-10----10---6-7----------------------------||----------------------------------------------------------||----------------------------------------------------------||----------------------------------------------------------|
|-------10---8-----------10-8--------------------------------||----10-------11-10----------11-10------8---------8----------||---7---------------------------------------9-10----10-9-10--||------------------------------------------------------------||------------------------------------------------------------||------------------------------------------------------------|
|-------------8--------10----------------------------------||-------10-11----11-10--------8-10-11-10-8--10----8-10-8---||-----------------------------------------------10------10-||----------------------------------------------------------||----------------------------------------------------------||----------------------------------------------------------|
|----------------------------------------------------------||---8-------8----------------------------------------------||------9-10---10---6--7------------------------------------||----------------------------------------------------------||----------------------------------------------------------||----------------------------------------------------------|
Tap to rate this tab
 
# A B C D E F G H I J K L M N O P Q R S T U V W X Y Z