Carlos Santana - Gypsy Queen tab

|----------------------------------------------------||-------------------------------------7~-------------||-------------------------------------7~-------------||-0-----0-----0-----0-----0-----0-----7~-------------||----0-----0-----0-----0-----0-----0--5~-------------||----------------------------------------------------|
|----------------------------------------------------||-8p7p5---7~--------------7/10--8p7p5---7~-----------||------7--7~---------5h7h9-----------7--7~-----------||---------7~----------------------------7~-----------||---------5~----------------------------5~-----------||----------------------------------------------------|
|----------------------------------------------------||-----5-7-7-4-------------------7~-------------------||-5-7---------5h7--5-5-4-4------7~--------7/19-------||--------------------------7-5--7~-------------------||-------------------------------5~-------------------||----------------------------------------------------|
|-10----10--------------10----10---------------------||----13----13^(full)-10----13------------------------||--------------------------------12^(full)-10--------||----------------------------------------------------||----------------------------------------------------||----------------------------------------------------| x2
|--------------------16^(slight bend)--16^---14p12---||--------------------------------------------------15||--------9-------------------------------------------||-12-10~---10-10h12~---------------------------------||----------------------------------------------------||----------------------------------------------------|
|-/22-22-22-22-22-22-22-22-22-22-22-/22-22-22-22-22--| pick these a lot|----------------------------------------------------| and palm mute|----------------------------------------------------| slightly.|----------------------------------------------------||----------------------------------------------------||----------------------------------------------------|
|----------------------------------------------------||-7~-----7~-----7~-----5---5-----7~------------------||-7~-----7~-----7~-----5---5-----7~------------------||-7~-----7~-----7~-----5---5-----7~------------------||-5~-----5~-----5~-----3---2-----5~------------------||-----------------------------3----------------------|
|----------------------------------------------------||-7---5---5-----7~-----5---5-----7~------------------||-7---5---5-----7~-----5---5-----7~------------------||-7---5---5-----7~-----5---5-----7~------------------||-5---3---2-----5~-----3---2-----5~------------------||------------3----------------3----------------------|
|----------------------------------------------------||----------------------------------------------------||----------------------------------------------------||----------------------------------------------------||-5--0-3-5--0-0-7-5--0-3-5--0-0-7-5--0-3-5--0-0-7-5--||----------------------------------------------------|
|----------------------------------------------------||----------------------------------------------------||----------------------------------------------------||----------------------------------------------------||-0-3-5--0-0-7-5--0-3-5--0-0-7-5--0-3-5--0-0-7-5-----||----------------------------------------------------|
|----------------------------------------------------||-------------------------5~----5~----7~-------------||-------------------------5~----5~----7~-------------||-------------------------5~----5~----7~-------------||-0-3-5--0-0-7-5--0-3-5~--3~----2~----7~-------------||-------------------------------------5~-------------|
Tab made by DCBeezy.
Tap to rate this tab
 
# A B C D E F G H I J K L M N O P Q R S T U V W X Y Z