Carlos Santana - Corazon Espinado tab

La mano derecha kon la ke sostienes la pua(uña)no rasguea
 solo le das un toke komo para darle sonido a las kuerdas.

1|---------------------|-----7-6--------------------------|2|---------------------|---7-----7------------------------|3|----------7----------|-7---------9--7-9//11-11--9-6-7-9-|4|-----7//9---9//7//9--|----------------------------------|5|--9º-----------------|----------------------------------|6|---------------------|----------------------------------|
1|--------7//10-7----7-|----14-19-18-14-------------------|2|--7//10---------10---|-15-------------17--15-17//19-19--|3|---------------------|----------------------------------|4|---------------------|----------------------------------|5|---------------------|----------------------------------|6|---------------------|----------------------------------|
1|-----------------------------------------------||2|-17//19-19-17//19-19--17-14-15-17-15-14-14-12--||3|-----------------------------------------------||4|-----------------------------------------------||5|-----------------------------------------------||6|-----------------------------------------------||
Esa mujer me esta matando me ha espinado el corazón
1|------------------------||2|------------------------||3|-9//11-9-7-9-7-11//7-9--||4|------------------------||5|------------------------||6|------------------------||
por más que trato de olvidarla mi alma no da razón.
1|--------------------||2|--------------------||3|--6-7-9—-9//7-------||4|--------------9//7--||5|--------------------||6|--------------------||
Mi corazón aplastado
1|-------------------------||2|--10-8-7-----------------||3|---------9-7-9-11-9//11--||4|-------------------------||5|-------------------------||6|-------------------------||
dolido y abandonado a ver a ver tu sabes dime mi amor
1|-----------||2|-----------||3|------6-7--||4|----9------||5|--9--------||6|-----------||
cuanto amor y que dolor nos quedó
CORO Ah ah ah corazón espinado _1|-------------------------|| |2|-------------------------|| |3|-----7-------------------|| |Sto hace la4|--9------9-8-11---8---8--|| |segunda guitarra5|-------9--------9---9----|| |6|-------------------------|| |
_| Como duele me duele mamá _1|-------------------------|| |2|-------------------------|| |3|-----7-------------------|| |Sto hace la4|--9------9-8-11---8---8--|| |segunda guitarra5|-------9--------9---9----|| |6|-------------------------|| | _|
Ah ah ah como me duele el amor
1|--5//7--7-7-7-7-7--7-7-7-7-5//7--5------------------||2|-----------------------------------7//5--7-5-7-5-7--||3|----------------------------------------------------||4|----------------------------------------------------||5|----------------------------------------------------||6|----------------------------------------------------||
Como duele como duele el corazón cuando uno es bien entregado
1|---------||2|---------||3|--6-7-9--||4|---------||5|---------||6|---------||
pero no olvides mujer que algun día diras ay ay ay como me duele el amor
1|--------------------------------||2|--------------------------------||3|---9//11--11-11--9//7---9//7----||4|----------------------9------9--||5|--------------------------------||6|--------------------------------||
CORO
Ah ah ah corazón espinado _1|-------------------------|| |2|-------------------------|| |3|-----7-------------------|| |Sto hace la4|--9------9-8-11---8---8--|| |segunda guitarra5|-------9--------9---9----|| |6|-------------------------|| | _|
Como duele me duele mamá _1|-------------------------|| |2|-------------------------|| |3|-----7-------------------|| |Sto hace la4|--9------9-8-11---8---8--|| |segunda guitarra5|-------9--------9---9----|| |6|-------------------------|| | _|
Ah ah ah como me duele el amor
1|---------------------------------|-------------------------||2|--10//12-10----10----------------|-12-10-------------------||3|------------11-------9//11-9//11-|-------11-9-7-9-11//7----||4|------------------12-------------|----------------------9--||5|---------------------------------|-------------------------||6|---------------------------------|-------------------------||
Ah ah ah corazón espinado
1|----------------------||2|----------------------||3|----7-6---7-6---------||4|--9-----------9-7//9--||5|----------------------||6|----------------------||
1|--12//10--12//10--12//10--12//10--12//14-14-14-14--12-10-12-----||2|------------------------------------------------------------12--||3|----------------------------------------------------------------||4|----------------------------------------------------------------||5|----------------------------------------------------------------||6|----------------------------------------------------------------||
Ah ah ah como me duele el amor
1|--10-9--10-9------------||2|-------------12-10//12--||3|------------------------||4|------------------------||5|------------------------||6|------------------------||
1|-------------||2|-------------||3|-------------||4|-------------||5|--7//9-7//9--||6|-------------||
ECHELE MI CARLITOS Aqui se hace una cejilla y luego la desliza hacia abajo un kon rasgueo rápido. SOLO 1 :
1|------------------9//10-7---7-7-7-7-7--7-7--|---------------------|2|--10//12-10-7---7---------9-----------------|---------------------|3|--------------9-----------------------------|-11-9//11-9--9//7-9--|4|--------------------------------------------|---------------------|5|--------------------------------------------|---------------------|6|--------------------------------------------|---------------------|
1|-7//10-10-10--7-10--7-10-10-10--7-10-10-|-7//10--12-12-10-12-12-10-|2|----------------------------------------|--------------------------|3|----------------------------------------|--------------------------|4|----------------------------------------|--------------------------|5|----------------------------------------|--------------------------|6|----------------------------------------|--------------------------|
1|-12-12-12--10-12-12-|-10//12--14//15-14//15-14//15--14//15-14//15--|2|--------------------|----------------------------------------------|3|--------------------|----------------------------------------------|4|--------------------|----------------------------------------------|5|--------------------|----------------------------------------------|6|--------------------|----------------------------------------------|
1|-14-15-14-15-14-15-14-15-17-15-14-17//19-19-|-19-17-14-12-14--|2|--------------------------------------------|-----------------|3|--------------------------------------------|-----------------|4|--------------------------------------------|-----------------|5|--------------------------------------------|-----------------|6|--------------------------------------------|-----------------|
1|-19-19-19-14//12-14//12-14------------14//12-12--------------------|2|---------------------------14//15//17-----------15//14//12--10//12-|3|-------------------------------------------------------------------|4|-------------------------------------------------------------------|5|-------------------------------------------------------------------|6|-------------------------------------------------------------------|
1|-------------------------------------------------------------------|2|-12//14//15-12//14//15-12//14//15-12//14//15-12//14//15-12//14//15-|3|-------------------------------------------------------------------|4|-------------------------------------------------------------------|5|-------------------------------------------------------------------|6|-------------------------------------------------------------------|
1|---------------------------------------------------------------||2|-12--14//15//17-14//15//17-14//15//17-14//15//17-14//15//17-17-||3|---------------------------------------------------------------||4|---------------------------------------------------------------||5|---------------------------------------------------------------||6|---------------------------------------------------------------||
Aqui se hace parecido ke al principio pero luego ke se desliza la cejilla hacia abajo se desliza hacia ariba kon un rasgueo rápido. Como me duele el olvido
1|----------------------||2|--10-8-7--------------||3|---------9-7-9-11-11--||4|----------------------||5|----------------------||6|----------------------||
como duele el corazón
1|----7-9-10-9-7----------||2|--7------------7--------||3|-----------------7------||4|-------------------9-7--||5|------------------------||6|------------------------||
como me duele estar vivo
1|-----------------------------------||2|-----------------------------------||3|----6-9-9-7-9-11-12-11-9//11-9//7--||4|--7--------------------------------||5|-----------------------------------||6|-----------------------------------||
sin tenerte a un lado amor
1|-----------------------------||2|-----------------------------||3|-----------------------------||4|-----------------------------||5|--7//9-9-9--7//9-9-9—7//9-9--||6|-----------------------------||
Corazónespinado....corazón espinado... corazón espinado1|-------------------------|--------------------|----------||2|-------------------------|--------------------|-----7----||3|----7-9-11-9//11-9-7-----|-7-6--6//7-6--------|-7-9---9--||4|--9------------------7-9-|-------------7---9--|----------||5|-------------------------|---------------9----|----------||6|-------------------------|--------------------|----------||
corazón espinado....
1|-------------------------------|2|--------12—10//7---------------|3|--9//11----------9--9-7--------|4|------------------------9-7-9--|5|-------------------------------|6|-------------------------------|
1|--------7---7-7-7-7--7-7--||2|------7---7---7-7-7--7-7--||3|--7-9---------------------||4|--------------------------||5|--------------------------||6|--------------------------||
SOLO 2 :
1|--12//14--12-10-12//14-14-14--12-10-12----|2|---------------------------------------12-|3|------------------------------------------|4|------------------------------------------|5|------------------------------------------|6|------------------------------------------|
1|-----------------------------------------------------------|2|--15//14//12-15//14//12--14//15//17-14//15//17-14//15//17--|3|-----------------------------------------------------------|4|-----------------------------------------------------------|5|-----------------------------------------------------------|6|-----------------------------------------------------------|
1|---------14-14-14-14-14-14-14-14-14-14-14-14-14-14-14-14-14-14-14--|2|-15//17//15-15-15-15-15-15-15-15-15-15-15-15-15-15-15-15-15-15-15--|3|-------------------------------------------------------------------|4|-------------------------------------------------------------------|5|-------------------------------------------------------------------|6|-------------------------------------------------------------------|
1|----------14--17//14-17//14-17//14-17//19--19-19-19-19--19-19-19-19-|2|-14-15-17-----------------------------------------------------------|3|--------------------------------------------------------------------|4|--------------------------------------------------------------------|5|--------------------------------------------------------------------|6|--------------------------------------------------------------------|
1|--19-17-----------------||2|--------19-17-19-17-15--||3|------------------------||4|------------------------||5|------------------------||6|------------------------||
corazón espinado....
1|--10//9-10//9-10//9-10--9--12-10-9---------------||2|-----------------------------------10----10//12--||3|--------------------------------------11---------||4|-------------------------------------------------||5|-------------------------------------------------||6|-------------------------------------------------||
corazón espinado....
1|--10-9--9-10-9------------||2|---------------12-10//12--||3|--------------------------||4|--------------------------||5|--------------------------||6|--------------------------||
corazón espinado....
1|-------------|------------------------------||2|-------------|----------12--10//7-----------||3|----7-9-11-9-|-9//11-11-----------9--9//7---||4|--9----------|---------------------------9--||5|-------------|------------------------------||6|-------------|------------------------------||
corazón espinado....
1|-----------------------------||2|-----------------------------||3|----7-9-11-9--9//11-11-11-9--||4|--9--------------------------||5|-----------------------------||6|-----------------------------||
FINAL :
1|--7--7--7--7--7--7---7--7---9--9--9--9--9--9--|2|-10-10-10-10-10-10--10-10--12-12-12-12-12-12--|3|----------------------------------------------|4|----------------------------------------------|5|----------------------------------------------|6|----------------------------------------------|
1|---9--9--9---9--9---10-10-10-10-10--10-10-10-10-10--|2|--12-12-12--12-12---12-12-12-12-12--12-12-12-12-12--|3|----------------------------------------------------|4|----------------------------------------------------|5|----------------------------------------------------|6|----------------------------------------------------|
1|-12-12--|-12//14-14-14—12//14-14—-12//14--12//14--12//14—12//14//17-|2|-12-12--|-----------------------------------------------------------|3|--------|-----------------------------------------------------------|4|--------|-----------------------------------------------------------|5|--------|-----------------------------------------------------------|6|--------|-----------------------------------------------------------|
1|--12----12//14--14------------------------------------|2|-----15-------------15//14-12--15//14-12--15//14//12--|3|------------------------------------------------------|4|------------------------------------------------------|5|------------------------------------------------------|6|------------------------------------------------------|
1|------------------------|-----19----21-22-22--21-21--19--19--|2|--14//15-17--14//15-17--|--19----19--------------------------|3|------------------------|------------------------------------|4|------------------------|------------------------------------|5|------------------------|------------------------------------|6|------------------------|------------------------------------|
1|--------19-------------------19--|2|--19-17-----17-15-19--17---------|3|-------------------------16------|4|---------------------------------|5|---------------------------------|6|---------------------------------|
1|--22-22-22-22-22-22-22-22--23-23-22-19-19--|2|-------------------------------------------|3|-------------------------------------------|4|-------------------------------------------|5|-------------------------------------------|6|-------------------------------------------|
1|--19-18-17-15-14--12//14-12--------|---------19//22-19--|2|----------------------------15-12--|--19//22------------|3|-----------------------------------|--------------------|4|-----------------------------------|--------------------|5|-----------------------------------|--------------------|6|-----------------------------------|--------------------|
1|---------19//22-19-----19//22-19----19-19-24--|2|--19//22------------22-----------22-----------|3|----------------------------------------------|4|----------------------------------------------|5|----------------------------------------------|6|----------------------------------------------|
1|----------------------|-------------------------------------------|2|----------------------|-------------------------------------------|3|--16//19-16----16-16--|-------------------------------------------|4|------------19--------|-14//16-14--12//14-14--14//16---14//12-----|5|----------------------|---------------------------------------14--|6|----------------------|-------------------------------------------|
1|----------------------------------||2|----------------------------------||3|----------------------------------||4|-----12----12----12----12----12.--||5|--14----14----14----14----14------||6|----------------------------------||
Tap to rate this tab
 
# A B C D E F G H I J K L M N O P Q R S T U V W X Y Z