Catherine - Sorry tab

#----------------------------------PLEASE NOTE---------------------------------#
#This file is the author's own work and represents their interpretation of the #
#song. You may only use this file for private study, scholarship, or research. #
#------------------------------------------------------------------------------#
#
Tabbed by Brian "Ansigod" McCall 

SORRY - by Catherine from the album Sorry
=====

Tuning: D# A# D# G# C F or (I suppose you could) capo the 1st fret

Note: This is pretty close, but I won't swear by this tab.  Rhythm
in this tab is nonexistant.  Please follow the recording.

*1

G1 Clean

|-0-0-0----0--0--0-0-0--0-0--0--2-2-2--2-2--2--5-5-5--5-5--5-||-0-0-0--0-0--0--0-0-0--0-0--0--3-3-3--3-3--3--3-3-3--3-3--3-||-2-2-2--2-2--2--4-4-4--4-4--4--2-2-2--2-2--2--2-2-2--2-2--2-||-2-2-2--2-2--2--2-2-2--2-2--2--0-0-0--0-0--0--0-0-0--0-0--0-||-0-0-0--0-0--0--0-0-0--0-0--0--0-0-0--0-0--0--0-0-0--0-0--0-||------------------------------------------------------------|
G2 Clean
|-0-0-0----0--0--0-0-0--0-0--0--2-2-2--2-2--2--0-0-0--0-0--0-||-0-0-0--0-0--0--0-0-0--0-0--0--3-3-3--3-3--3--3-3-3--3-3--3-||-2-2-2--2-2--2--2-2-2--2-2--2--2-2-2--2-2--2--2-2-2--2-2--2-||-2-2-2--2-2--2--2-2-2--2-2--2--0-0-0--0-0--0--0-0-0--0-0--0-||-0-0-0--0-0--0--0-0-0--0-0--0--0-0-0--0-0--0--0-0-0--0-0--0-||------------------------------------------------------------|
G3
|-----------------------------------------------------------||-------------------------------7~~~-----------5hbr---------||-----------------------------------------------------------||-----------------------------------------------------------||-----------------------------------------------------------||-----------------------------------------------------------|
Repeat *1 under lyrics. G3 changes, but I'll have to tab that once I figure it out later. Transition 1 ("Think this is the end....This is the end")
|-0----------------0----------------------------------------||-0-----------------0---------------------------------------||-2------------------2--------------------------------------||-2-------------------2-------------------------------------||-0--------------------0------------------------------------||-----------------------------------------------------------|
*2 All guitars, Distortion
|-----------------------------------------------------------||-----------------------------------------------------------||-----------------------------------------------------------||-4--4--4-X-X-7--7--7-X-X-0--0--0-X-X-3--3--3-X-X-----------||-4--4--4-X-X-7--7--7-X-X-0--0--0-X-X-3--3--3-X-X-----------||-4--4--4-X-X-7--7--7-X-X-0--0--0-X-X-3--3--3-X-X-----------|
G3 lead fill
|-----------------------------------------------------------||-----------------------------------------------------------||-----------------------------------------------------------||-------------------------4-5-5/7-5-4-----------------------||-------------------------------------5-3~~-----------------||-----------------------------------------------------------|
|-----------------------------------------------------------||-----------------------------------------------------------||-----------------------------------------------------------||-4--4--4-X-X-7--7--7-X-X-0--0--0-X-X-3--3--3-X-X-----------||-4--4--4-X-X-7--7--7-X-X-0--0--0-X-X-3--3--3-X-X-----------||-4--4--4-X-X-7--7--7-X-X-0--0--0-X-X-3--3--3-X-X-----------|
G3 lead fill
|-----------------------------------------------------------||-----------------------------------------------------------||-------------------------4-5-7-7/9-7-----------------------||-------------------------------------5-3~~~----------------||-----------------------------------------------------------||-----------------------------------------------------------|
|-----------------------------------------------------------||-----------------------------------------------------------||-----------------------------------------------------------||-4--4--4-X-X-9--9--9-X-X-0--0--0-X-X-2--2--2-X-X-----------||-4--4--4-X-X-9--9--9-X-X-0--0--0-X-X-2--2--2-X-X-----------||-4--4--4-X-X-9--9--9-X-X-0--0--0-X-X-2--2--2-X-X-----------|
|---------------------------|--------------------------------||---------------------------|--------------------------------||---------------------------|--------------------------------||-7--7--7-X-X-0--0--0-0-0-0-|--------------------------------||-7--7--7-X-X-0--0--0-0-0-0-|--------------------------------||-7--7--7-X-X-0--0--0-0-0-0-|--------------------------------| ^here the different guitars play different chords of the same note. The following tabs start here.
G1pm-----------------------------------------------------------||------------------------------------------------------------||------------------------------------------------------------||-4-4-4-4-4-4-4-4-4-4-4-4-4-4-4-4-4-4---4---4--4-------------||-4-4-4-4-4-4-4-4-4-4-4-4-4-4-4-4-4-4---4---4--4-------------||-2-2-2-2-2-2-2-2-2-2-2-2-2-2-2-2-2-2---2---2--2-------------||------------------------------------------------------------|
^rest^--^G2pm-----------------------------------------------------------||------------------------------------------------------------||------------------------------------------------------------||------------------------------------------------------------||-9-9-9-9-9-9-9-9-9-9-9-9-9-9-9-9-9-9---9---9--9-------------||-9-9-9-9-9-9-9-9-9-9-9-9-9-9-9-9-9-9---9---9--9-------------||-9-9-9-9-9-9-9-9-9-9-9-9-9-9-9-9-9-9---9---9--9-------------|
^rest^--^G3pm-----------------------------------------------------------||------------------------------------------------------------||---------------------------------1212--12--12-12------------||---------------------------------1111--11--11-11------------||-9-9-9-9-9-9-9-9-9-9-9-9-9-9-9-9-9-9---9---9--9-------------||-9-9-9-9-9-9-9-9-9-9-9-9-9-9-9-9-9-9---9---9--9-------------||-9-9-9-9-9-9-9-9-9-9-9-9-9-9-9-9-9-9---9---9--9-------------| ^rest^--^
Transition 2 is all noise: feedback, pick slides, ect... Solo
|-------------------------------------------------------------------||------------------------------------10-12-10-----12-12fbr-10-12-10-||-----9-11-9---------9-11-9-----9h11----------9~~-------------------||-7h9--------7~~-7h9--------7~~-------------------------------------||-------------------------------------------------------------------||-------------------------------------------------------------------|
|-9-10-12-10--9--------------------0---------------0---------------||----------------12--14fbr-12--10--12fbr-10-12-10~-12fbr-10-12-10~-||------------------------------------------------------------------||------------------------------------------------------------------||------------------------------------------------------------------||------------------------------------------------------------------|
Rhythm under solo is as follows (same as *2)
|-----------------------------------------------------------||-----------------------------------------------------------||-----------------------------------------------------------||-4--4--4-X-X-7--7--7-X-X-0--0--0-X-X-3--3--3-X-X-----------||-4--4--4-X-X-7--7--7-X-X-0--0--0-X-X-3--3--3-X-X-----------||-4--4--4-X-X-7--7--7-X-X-0--0--0-X-X-3--3--3-X-X-----------| ^repeat once
Outro ("hope you....")
|-----------------------------------------------------------||-----------------------------------------------------------||-----------------------------------------------------------||-4--4--4-X-X-9--9--9-X-X-0--0--0-X-X-2--2--2-X-X-----------||-4--4--4-X-X-9--9--9-X-X-0--0--0-X-X-2--2--2-X-X-----------||-4--4--4-X-X-9--9--9-X-X-0--0--0-X-X-2--2--2-X-X-----------|
|---------------------------|--------------------------------||---------------------------|--------------------------------||---------------------------|--------------------------------||-7--7--7-X-X-0--0--0-0-0-0-|--------------------------------||-7--7--7-X-X-0--0--0-0-0-0-|--------------------------------||-7--7--7-X-X-0--0--0-0-0-0-|--------------------------------| ^You know the routine...
G1pm-----------------------------------------------------------||----------------------------------------------0-------------||----------------------------------------------0-------------||-4-4-4-4-4-4-4-4-4-4-4-4-4-4-4-4-4-4---4---4--2-------------||-4-4-4-4-4-4-4-4-4-4-4-4-4-4-4-4-4-4---4---4--2-------------||-2-2-2-2-2-2-2-2-2-2-2-2-2-2-2-2-2-2---2---2--0-------------||------------------------------------------------------------|
^rest^--^G2pm-----------------------------------------------------------||------------------------------------------------------------||------------------------------------------------------------||------------------------------------------------------------||-9-9-9-9-9-9-9-9-9-9-9-9-9-9-9-9-9-9---9---9--7-------------||-9-9-9-9-9-9-9-9-9-9-9-9-9-9-9-9-9-9---9---9--7-------------||-9-9-9-9-9-9-9-9-9-9-9-9-9-9-9-9-9-9---9---9--7-------------|
^rest^--^G3pm-----------------------------------------------------------||------------------------------------------------------------||---------------------------------1212--12--12-10------------||---------------------------------1111--11--11-9-------------||-9-9-9-9-9-9-9-9-9-9-9-9-9-9-9-9-9-9---9---9--7-------------||-9-9-9-9-9-9-9-9-9-9-9-9-9-9-9-9-9-9---9---9--7-------------||-9-9-9-9-9-9-9-9-9-9-9-9-9-9-9-9-9-9---9---9--7-------------| ^rest^--^
Well, that's Sorry. Please send corrections, complaints, suggestions, flames, etx... to that address at the top. Enjoy!
Tap to rate this tab
 
# A B C D E F G H I J K L M N O P Q R S T U V W X Y Z