Cauldron - All Or Nothing tab

Main Riff:

|------------------------------|-----------------------------||------------------------------|-----------------------------||------------------------------|-----------------------------||--9h--10--------9h--10--------|--9h--10-----12-----12-------||----------0--0----------0--0--|----------0--10-----10-------||------------------------------|-----------------------------|
|------------------------------|-----------------------------||------------------------------|-----------------------------||------------------------------|-----------------------------||--9h--10--------9h--10--------|--9h--10-----14-----12-------||----------0--0----------0--0--|----------0--12-----10-------||------------------------------|-----------------------------|
Lead Break:
|-----------------------|--------------------|---------------------||-----------------------|--------------------|---------------------||-----------------------|--------------------|---------------------||--10----10-------------|--------------------|--9------7------5----||---8-----8-------------|--10----------------|--7------5------3----||-----------------------|---8----------------|---------------------|
|------------------|------------------|-----------------|----------||------------------|------------------|-----------------|----------||------------------|------------------|-----------------|----------||------------------|------------------|-----------------|----------||--7---------------|--10--------------|--5--------------|--7-------||--5---------------|---8--------------|--3--------------|--5-------|
|--------------------|--------------------|----------------------||--------------------|--------------------|----------------------||--------------------|--------------------|----------------------||--10----------------|--------------------|--9------7------12----||---8----------------|--10----------------|--7------5------10----||--------------------|---8----------------|----------------------|
|--------------------|--------------------|--------------------||--------------------|--------------------|--------------------||--------------------|--------------------|--------------------||--14----------------|--10----------------|--12----------------||--12----------------|---8----------------|--10----------------||--------------------|--------------------|--------------------|
Chorus:
|--------------------|--------------------||--------------------|--------------------||--------------------|--------------------||--10----------------|--12----------------||---8----------------|--10----------------||--------------------|--------------------|
|--------------------|--------------------||--------------------|--------------------||--------------------|--------------------||--14----------------|--10----------------||--12----------------|---8----------------||--------------------|--------------------|
|--------------------|----------------------|--------------------------||--------------------|----------------------|--------------------------||--------------------|----------------------|--------------------------||--12----------------|----------------------|--------------------------||--10----------------|-----------------7----|-----8-------7h--8--------||--------------------|--8------10-----------|--------------------10----|
|--------------------|--------------------|--------------------||--------------------|--------------------|--------------------||--------------------|--------------------|--------------------||--10----------------|--12----------------|--14----------------||---8----------------|--10----------------|--12----------------||--------------------|--------------------|--------------------|
|--------------------|--------------------|-------------------||--------------------|--------------------|-------------------||--------------------|--------------------|-------------------||--12----------------|--10----------------|--12---------------||--10----------------|---8----------------|--10---------------||--------------------|--------------------|-------------------|
Solo Rhythm:
|--------------------|-------------------|-------------------||--------------------|-------------------|-------------------||--------------------|-------------------|-------------------||--------------------|-------------------|-------------------||--12----------------|--7----------------|--8----------------||--10----------------|--5----------------|--6----------------|
|--------------------|--------------------|--------------------||--------------------|--------------------|--------------------||--------------------|--------------------|--------------------||--------------------|--------------------|--------------------||--10----------------|--12----------------|--14----------------||---8----------------|--10----------------|--12----------------|
Tap to rate this tab
 
# A B C D E F G H I J K L M N O P Q R S T U V W X Y Z