Cavalera Conspiracy - Hearts Of Darkness tab

Cavalera Conspiracy - Hearts Of Darkness
Tab: Olmuzka
Tuning: Drop D

No solo.. 


     # = Pinch Harmonic


Intro:

||---------|| ||---------||||---------|| 8x||---------||||---------||||-000-000-||
|------------------------------|----------------------------||------------------------------|----------------------------||------------------------------|----------------------------||-----------8-5-8-7-------5-8-7|-------8-5-8-7--------------||-0---------6-3-6-5-------3-6-5|-------6-3-6-5-------4---1-0||-0--000-000-0------0-000--0---|000-000-0------0-000-4-0-1-0|
|--------------------------|--------------------------||--------------------------|--------------------------||--------------------------|--------------------------||-------8-5-8-7-------5-8-7|-------8-5-8-7------------||-------6-3-6-5-------3-6-5|-------6-3-6-5-------4---1||000-000-0------0-000--0---|000-000-0------0-000-4-0-1|
|-----------------------------||-----------------------------||-----------------------------| 4x|-------------------------1-4#||--------1111-----------------||1111-0-------0--4444-0--0----|
|------------------------------|----------------------------||------------------------------|----------------------------||------------------------------|----------------------------||-----------8-5-8-7-------5-8-7|-------8-5-8-7--------------||-0---------6-3-6-5-------3-6-5|-------6-3-6-5-------4---1-0||-0--000-000-0------0-000--0---|000-000-0------0-000-4-0-1-0|
|--------------------------|--------------------------||--------------------------|--------------------------||--------------------------|--------------------------||-------8-5-8-7-------5-8-7|-------8-5-8-7------------||-------6-3-6-5-------3-6-5|-------6-3-6-5-------4---1||000-000-0------0-000--0---|000-000-0------0-000-4-0-1|
|-----------------------------||-----------------------------||-----------------------------| 4x|-------------------------1-4#||--------1111-----------------||1111-0-------0--4444-0--0----|
||---------|| ||---------||||---------|| 8x||---------||||---------||||-000-000-||
|------------------------------|----------------------------||------------------------------|----------------------------||------------------------------|----------------------------||-----------8-5-8-7-------5-8-7|-------8-5-8-7--------------||-0---------6-3-6-5-------3-6-5|-------6-3-6-5-------4---1-0||-0--000-000-0------0-000--0---|000-000-0------0-000-4-0-1-0|
|--------------------------|--------------------------||--------------------------|--------------------------||--------------------------|--------------------------||-------8-5-8-7-------5-8-7|-------8-5-8-7------------||-------6-3-6-5-------3-6-5|-------6-3-6-5-------4---1||000-000-0------0-000--0---|000-000-0------0-000-4-0-1|
|-----------------------------||-----------------------------||-----------------------------| 4x|-------------------------1-4#||--------1111-----------------||1111-0-------0--4444-0--0----|
|-----------------------------||-----------------------------||-----------------------------||-----------------------------||0-0-0-0-0-0-0-0-0-0-0-0-0-0-0||0-0-0-0-0-0-0-0-0-0-0-0-0-0-0|
|-------------||-------------||-------------| 16x|7-8-7--------||5-6-5--------||-0----0-0-000|
|------------------------------------------------------------------------||------------------------------------------------------------------------||------------------------------------------------------------------------| 2x|4-3---3-3---6--5---4-3---3-3---8--6---4-3---3-3---6--5--8--6--5--8--6-5-||4-3---3-3---4--3---4-3---3-3---6--4---4-3---3-3---4--3--6--4--3--6--4-3-||4-3-3-3-3-33-33-33-4-3-3-3-3-33-33-33-4-3-3-3-3-33-33-33-33-33-33-33-3--|
|-----------------||-----------------||-----------------| 4x|-----------------||11-0-000-44-0-000||11-0-000-44-0-000|
|------------------------------------------------------------------------||------------------------------------------------------------------------||------------------------------------------------------------------------| 2x|4-3---3-3---6--5---4-3---3-3---8--6---4-3---3-3---6--5--8--6--5--8--6-5-||4-3---3-3---4--3---4-3---3-3---6--4---4-3---3-3---4--3--6--4--3--6--4-3-||4-3-3-3-3-33-33-33-4-3-3-3-3-33-33-33-4-3-3-3-3-33-33-33-33-33-33-33-3--|
|-----------------||-----------------||-----------------| 4x|-----------------||11-0-000-44-0-000||11-0-000-44-0-000|
|-----------------------------||-----------------------------||-----------------------------||-----------------------------||0-0-0-0-0-0-0-0-0-0-0-0-0-0-0||0-0-0-0-0-0-0-0-0-0-0-0-0-0-0|
|-------------||-------------||-------------| 16x|7-8-7--------||5-6-5--------||-0----0-0-000|
|---------------------------------||---------------------------------||---------------------------------| 4x|--------------------------------4||--------------------------5-6-5--||000-0-0-000-0-0-000-0-000--------|
|-------------||-------------||-------------| 16x|7-8-7--------||5-6-5--------||-0----0-0-000|
|---------------------------------||---------------------------------||---------------------------------| 4x|--------------------------------4||--------------------------5-6-5--||000-0-0-000-0-0-000-0-000--------|
|---------------||---------------||---------------||---------------||4-----4-3-2-1-0||4-----4-3-2-1-0|
Bonus:|------------------------17-17-17-16-16-16-16-16||-----------------------------------------------||19-19-19-19-19-19-19-19------------------------| 6x|-----------------------------------------------||-----------------------------------------------||-----------------------------------------------|End..
Rate!!!! Enjoy!
Tap to rate this tab
 
# A B C D E F G H I J K L M N O P Q R S T U V W X Y Z