Censored In Color - Patterns tab

Guitar 1
(THOMPSON)

------4-----------7/9\7-------4--------------------|----------4br--------------------4br-----------5---|--------------4-4--------------------4-------------|---------------------------------------------------|--4-4---4-----------------0-0---0---------6br------|---------------------------------------------------|
------4-----------7/9\7-------4---------------|----------4br--------------------4br----------|--------------4-4--------------------4--------|-----------------------------------------4br--|--4-4---4-----------------0-0---0--------6br--|----------------------------------------------|
------4-----------7/9\7-------4--------------------|----------4br--------------------4br-----------5---|--------------4-4--------------------4-------------|---------------------------------------------------|--4-4---4-----------------0-0---0---------6br------|---------------------------------------------------|
------4-----------7/9\7-------4---------------|----------4br--------------------4br----------|--------------4-4--------------------4--------|-----------------------------------------4br--|--4-4---4-----------------0-0---0--------6br--|----------------------------------------------|
-------0-----------0------------0--------------------0-----|----5---5---5---5---5---5-----------0-------0-----12---12--|--6---6---6---6---6---6-----6---------6---8---/13----------|--------------------------7---7---7-----9------------------|-----------------------------------------------------------| x2-----------------------------------------------------------|
-----7--9--7--9------9------11------0----|---5--5--5--5--5------0-------0---12-12--|--6-6--6--6--6--6--6---6--------13-------|------------------7-7---7-/9-------------|-----------------------------------------| x2-----------------------------------------|
----11-12--11--12--11----------11-12---14b14b14b14b14b14b14r14--|------------------------12\-------------------------------------|----------------------------------------------------------------|----------------------------------------------------------------|--77--7--77--77--7----7-----77---7--77--------------------------| x4----------------------------------------------------------------|
------4-----------7/9\7-------4--------------------|----------4br--------------------4br-----------5---|--------------4-4--------------------4-------------|---------------------------------------------------|--4-4---4-----------------0-0---0---------6br------|---------------------------------------------------|
------4-----------7/9\7-------4---------------|----------4br--------------------4br----------|--------------4-4--------------------4--------|-----------------------------------------4br--|--4-4---4-----------------0-0---0--------6br--|----------------------------------------------|
------4-----------7/9\7-------4--------------------|----------4br--------------------4br-----------5---|--------------4-4--------------------4-------------|---------------------------------------------------|--4-4---4-----------------0-0---0---------6br------|---------------------------------------------------|
------4-----------7/9\7-------4---------------|----------4br--------------------4br----------|--------------4-4--------------------4--------|-----------------------------------------4br--|--4-4---4-----------------0-0---0--------6br--|----------------------------------------------|
-------0-----------0------------0--------------------0-----|----5---5---5---5---5---5-----------0-------0-----12---12--|--6---6---6---6---6---6-----6---------6---8---/13----------|--------------------------7---7---7-----9------------------|-----------------------------------------------------------| x2-----------------------------------------------------------|
-----7--9--7--9------9------11------0----|---5--5--5--5--5------0-------0---12-12--|--6-6--6--6--6--6--6---6--------13-------|------------------7-7---7-/9-------------|-----------------------------------------| x2-----------------------------------------|
----11-12--11--12--11----------11-12---14b14b14b14b14b14b14r14--|------------------------12\-------------------------------------|----------------------------------------------------------------|----------------------------------------------------------------|--77--7--77--77--7----7-----77---7--77--------------------------| x4----------------------------------------------------------------|
--12-11-11h12p11-9~--7-5-4b5r4------0~----0~----0~---11-12-14--|-------------------------------5~-5-5/7-7-7/9-9-9/12-0--0--0---|---------------------------------------------------------------|---------------------------------------------------------------|---------------------------------------------------------------|---------------------------------------------------------------|
--t16p11h12--(x8)--t19p11h14--(x8)--t16p11h12--(x8)--t19p11h14--(x8)--|----------------------------------------------------------------------|----------------------------------------------------------------------|----------------------------------------------------------------------|----------------------------------------------------------------------|----------------------------------------------------------------------|
--t16p11h12-(x16)--t19p11h14-(x16)t16p11h12-(x16)--t19p11h14-(x16)--|--------------------------------------------------------------------|--------------------------------------------------------------------|--------------------------------------------------------------------|--------------------------------------------------------------------|--------------------------------------------------------------------|
------4-------------2~--|----------4b5r4-----4~--|----------------4-4-4~--|------------------------|--4-4---4---------------|------------------------|
----11-12--11--12--11----------11-12---14b14b14b14b14b14b14r14--|------------------------12\-------------------------------------|----------------------------------------------------------------|----------------------------------------------------------------|--77--7--77--77--7----7-----77---7--77--------------------------| x2----------------------------------------------------------------|
------16--17----16----17--16----------16--17----191919191919191919--|------------------------------17\-----------------------------------|--------------------------------------------------------------------|--1414--14--1414--1414--14--14----1414--14--1414--------------------|--------------------------------------------------------------------|--------------------------------------------------------------------|
------16--17----16----17--16----------------------16-16-16------------------|------------------------------17-16-16-16-17-17-17--------17-17-17-16-16-17-|----------------------------------------------------------------------------|--1414--14--1414--1414--14--14----------------------------------------------|----------------------------------------------------------------------------|----------------------------------------------------------------------------|
Guitar 2 (JOVAN)
--12-11-10~-----12-11-10~-----|------------9~------------9~--|------------------------------|------------------------------|------------------------------|------------------------------|
--12-(x16)-14-(x8)-11-(x8)-12-(x16)-14-(x8)-11-(x8)--|-----------------------------------------------------|-----------------------------------------------------|-----------------------------------------------------|-----------------------------------------------------|-----------------------------------------------------|
--12-(x16)-16-(x8)-11-(x8)-12-(x8)-16-(x8)-11-(x8)--|----------------------------------------------------|----------------------------------------------------|----------------------------------------------------|----------------------------------------------------|----------------------------------------------------|
--0-------0------0-------|--5-------0------0-------|--6-------2------4-------|--6-------2------4-------|--4--x(8)-0-(x4)-2-(x4)--| x4-------------------------|
--12-11-10~-----|------------9~--|----------------|----------------|----------------|----------------|
-----777--------------777-----------------|--------444-555-44-------444-55-7b7b7b7b--|--666--------------666--------------------|------------------------------------------|------------------------------------------| x2------------------------------------------|
--12-(x16)-14-(x8)-11-(x8)-12-(x16)-14-(x8)-11-(x8)--|-----------------------------------------------------|-----------------------------------------------------|-----------------------------------------------------|-----------------------------------------------------|-----------------------------------------------------|
--12-(x16)-16-(x8)-11-(x8)-12-(x8)-16-(x8)-11-(x8)--|----------------------------------------------------|----------------------------------------------------|----------------------------------------------------|----------------------------------------------------|----------------------------------------------------|
--0-------0------0-------|--5-------0------0-------|--6-------2------4-------|--6-------2------4-------|--4--x(8)-0-(x4)-2-(x4)--| x4-------------------------|
---------------------------------------------------|---------------------------------------------------|----------(Guitar 1)-------------------------------|---------------------------------------------------|---------------------------------------------------|---------------------------------------------------|
--12p9-11p9----------12p9-11p9------14-14--|------------12p9-10p9----------12p9--------|-------------------------------------------|-------------------------------------------|-------------------------------------------|-------------------------------------------|
--12p9-11p9----------12p9-13p9-16-16-17-17--|------------12p9-10p9-----------------------|--------------------------------------------|--------------------------------------------|--------------------------------------------|--------------------------------------------|
--12p9-11p9----------12p9-11p9------14-14--|------------12p9-10p9----------12p9--------|-------------------------------------------|-------------------------------------------|-------------------------------------------|-------------------------------------------|
--12p9-11p9----------12p9-13p9-16-16-17-17---|------------12p9-10p9------------------------|---------------------------------------------|---------------------------------------------|---------------------------------------------|---------------------------------------------|--12p9-11p9----------12p9-11p9------14-14----|------------12p9-10p9----------12p9----------|---------------------------------------------|---------------------------------------------|---------------------------------------------|---------------------------------------------|
--12p9-11p9----------12p9-13p9-16-16-17-17--|------------12p9-10p9-----------------------|--------------------------------------------|--------------------------------------------|--------------------------------------------|--------------------------------------------|
-------------------|-------------------|--(Guitar 1)-------|-------------------|-------------------|-------------------|
--0-------0------0-------|--5-------0------0-------|--6-------2------4-------|--6-------2------4-------|--4--x(8)-0-(x4)-2-(x4)--| x4-------------------------|
Tap to rate this tab
 
# A B C D E F G H I J K L M N O P Q R S T U V W X Y Z