Chelsea Grin - Recreant tab version 2

This is how I think the song goes - learnt it by ear so tabs might not be 100% correct; 
but they're pretty close. Tab is for a 6 string guitar. Please let me know if i have 
made any mistakes :)

P = Pinch Harmonic.
H = Hammer On.
P = Pull Off.
. --> (Under Line) = Palm Mute

|-------------------------------------------| |-------------------------------------------| |-------------------------------------------|00:05|-------------------------------------------| |--------------------------0----------------| |--2--1--0--2--1--0--2--1----2--1--2--1--0--| x9 (on 3rd and 7th time, don't play the 1 and 0 on the end)
|----------------------------------------------------| |----------------------------------------------------| |----------------------------------------------------|00:39|----------------------------------------------------| |----5--4-----5--4----4---------5--4-----------------| |--0-------0--------3--------0--------0--5--2--1--2--|
x2 ----------------------------------------------------| ----------------------------------------------------| ----------------------------------------------------| -------------------------------------0--5--2--1--2--| ----5--4-----5--4----4---------5--4--0--5--2--1--2--| --0-------0--------3--------0--------0--5--2--1--2--|
|-------------------------------------------------------| |-------------------------------------------------------| |-------------------------------------------------------|00:55|-------------------------------------------------3-----| |----5--4-----5--4----4---------5--4--------------------| |--0-------0--------3--------0--------0--5--2--1--------|
P x2 -------------------------------------------------------| -------------------------------------------------------| -------------------------------------------------------| -------------------------------------------------------| ----5--4-----5--4----4---------5--4---------------3----| --0-------0--------3--------0--------0--5--2--1--------| P
|------------------------------------------------| |------------------------------------------------| |------------------------------------------------|01:10|--1-0-0-0--1-0-0-0--1-0-0-0--1-4-3-1-0-----0----| |--1-0-0-0--1-0-0-0--1-0-0-0--1-4-3-1-0--3--0----| |--1-0-0-0--1-0-0-0--1-0-0-0--1-4-3-1-0-----0----| . . . . . . . . . . . . . . . . . P .
|----------------------------| |----------------------------| |----------------------------|01:15|--0---00000000--0000--0000--| |--0---00000000--0000--0000--| x3 |--0---00000000--0000--0000--| ........ .... ....
|-------------------------| |-------------------------| |-------------------------|01:26|--0---00000000--00--00---| |--0---00000000--00--00---| |--0---00000000--00--00---| ........ .. ..
|--------------------------| |--14--11--13--10--11--7---| |--------------------------|01:30|--------------------------| |--------------------------| x4 |--------------------------|
|------------------------------| |------------------------------| |--14--11--13--10--11--13------|01:45|----------------------------0-| |----------------------------0-| x4 |----------------------------0-| .
Solo (sweep picking)
|--22p17----------| |-------18--------| |---------17------|02:01|-----------------| |-----------------| |-----------------|
|--22p17---------17--22p17---------17--22p17--------------------17-| |-------18----18----------18----18---------18----------------18----| |----------19----------------19--------------19------------19------|02:02|----------------------------------------------19--------19--------| |------------------------------------------------20-17-20----------| |------------------------------------------------------------------|
--22p17----------17--22p17--------------------19-24p19-----------| -------18----18-----------18----------------20--------20---------| ----------19----------------19------------21------------21-------| ----------------------------------------20-----------------------| -----------------------------------19-22-------------------------| x4 -----------------------------------------------------------------|
|----------------------| |----------------------| |----------------------|02:33|----------------------| |----5--4---5--4---4---| |--0------0------3-----|
|----------------------------------------------------| |----------------------------------------------------| |----------------------------------------------------|02:35|----------------------------------------------------| |----5--4-----5--4-----4--------5--4-----------------| |--0-------0--------3--------0--------0--5--2--1--2--|
x2 ----------------------------------------------------| ----------------------------------------------------| ----------------------------------------------------| -------------------------------------0--5--2--1--2--| ----5--4-----5--4----4---------5--4--0--5--2--1--2--| --0-------0--------3--------0--------0--5--2--1--2--|
|----------------------| |----------------------| |----------------------|02:50|----------------------| |----5--4---5--4---4---| |--0------0------3-----|
|-------------------------------------------------------| |-------------------------------------------------------| |-------------------------------------------------------|02:54|-------------------------------------------------3-----| |----5--4-----5--4----4---------5--4--------------------| |--0-------0--------3--------0--------0--5--2--1--------|
P x2 -------------------------------------------------------| -------------------------------------------------------| -------------------------------------------------------| -------------------------------------------------------| ----5--4-----5--4----4---------5--4---------------3----| --0-------0--------3--------0--------0--5--2--1--------| P
|---------------| |---------------| |---------------|03:10|---------------| |--1-1-1-0-0-0--| |--2-2-2-0-0-0--|
|------------------- ---------------------------| |------------------- ---------------------------| |------------------- 8th time ==> ----------------[let ring]-|03:13|------------------- --------------------0------| |--1-1-1---1-1-1-0-- x8 --1-1-1---1-1-1-0---0------| |--2-2-2---2-2-2-0-- --2-2-2---2-2-2-0---0------|
|-------------------------------------------------| |-------------------------------------------------| |-------------------------------------------------|03:46|-------------------------------------------------| |--1-1-1-----------1-1-1---0--1-1-1----1-1-1---0--| |--2-2-2-----------2-2-2---0--2-2-2----2-2-2---0--|
|-----------------------------------------| |-----------------------------------------| |-----------------------------------------|04:05|-----------------------------------------| |--1-1-1--1-1-1-1-1-1-1-1-1-1-1-1--1-1-1--| |--2-2-2--2-2-2-2-2-2-2-2-2-2-2-2--2-2-2--| . . . . . . . . . . . .
-------------------------| -------------------------| -------------------------|04:13 -------------------------| --0---1-1-1--1111--1111--| --0---2-2-2--2222--2222--| .... ....
----------------------------------------| ----------------------------------------| ----------------------------------------|04:18 ----------------------------------------| --1-1-1--1111-11-1111--111-1-----1-1-1--| --2-2-2--2222-22-2222--222-2-----2-2-2--| .... .. .... ...
Tap to rate this tab
 
# A B C D E F G H I J K L M N O P Q R S T U V W X Y Z